Guns N Roses

Knockin On Heavens Door Tabs



More from Guns N Roses

Guns N Roses Tabs
Guns N Roses Chords
Guns N Roses Bass
Guns N Roses Lyrics

E--------------------------------|----------3--------3--------|------------------------------------

B-----------3------3---------3---|-------2-----2--------2-----|-------1------0h1-------1-------1---

G---------0---0-------0----------|----3-----------3-------3---|-----2---2--------2-------2-------2-

D-------2------2--------2--------|-0--------------------------|---2-------2--------2--------2------

A--------------------------------|----------------------------|-0----------------------------------

E--3-----------------------------|----------------------------|------------------------------------







E--------------------------------|----------3--------3-------3---|------------------------------------

B-----------3------3---------3---|-------2-----2--------2------2-|-------1------1p0-------1------1----

G---------0---0-------0----------|----3-----------3-------3------|-----2---2--------2-------2------2--

D-------2------2--------2--------|-0-----------------------------|---2-------2--------2-------2-------

A--------------------------------|-------------------------------|-0----------------------------------

E--3-----------------------------|-------------------------------|------------------------------------









This is just how i play the intro then usually just ha a random pick and strum through the G,D,A choards.

through out the rest of the song ...... if u would like to hear this tab i have recorded it so just send

me an email and ill send one out to u (zacdabomb@hotmail.com)



GOOD LUCK

Get this song at amazon.com      Ebay     Ringtones Ringtones  


Learn to play: Songwriting, Piano, Harmonica, Guitar
Also available at Muzikum: Guns 'N' Roses - Knockin On Heavens Door lyrics

Related Guns N Roses Tabs

Knocking On Heavens Door Live tabs
Oh My God Solo tabs
Live And Let Die (greatest Hits) tabs
Dust N Bones tabs
Patience 2001 Intro tabs
Live And Let Die Solo tabs
Use Your Illusion 2 tabs
You Cant Put Your Arms Around A Memory tabs
Knocking On Heavens Door tabs
Crash Diet tabs
Yesterdays tabs
Dead Horse tabs
Out Ta Get Me tabs
Welcome To The Jungle (baby) tabs
Hair Of The Dog tabs
Mr. Brownstone (intro) tabs
Live And Let Die (main Riff) tabs
November Rain Lead Guitar tabs
Dont Damn Me tabs
Nightrain tabs


Guitar Tabs









All tabs are property and copyright of their owners. All tabs provided for educational purposes only. Privacy Policy, DMCA