Guns N Roses

Guns N Roses Live And Let Die Ver 2 Bass Tabs



More from Guns N Roses

Guns N Roses Tabs
Guns N Roses Chords
Guns N Roses Bass
Guns N Roses Lyrics




Verse 2x
Gb |----------------------||----------------------------------------------------|
Db |----------------------||----------------------------------------------------|
Ab |--------2---3---5---||--------2---3--------5------12---14---15-----|
Gb |---3-----------------||---3-------------5-------------------------------- |
"When you were young..."

Bridge
Gb |-------------------------------------------------------------------------|
Db |-------------------------------------------------------------------------|
Ab |--------3---4------------3---4----------------------------------------|
Gb |---3------------3---3--------------------------------------------------|
"Say live and let die..."

Chorus
Gb |-------------------------------||-----------------------------------------|
Db |-------------------------------||-----------------------------------------|
Ab |-------------------------------||-----------------------------------------|
Gb |---33333333333333---||---010---------------------------------|

Interlude
Gb |--------------------------------------------------------------------------|
Db |--------------------------------------------------------------------------|
Ab |---3--------3------------5--------5---78------------------------------|
Gb |--------3-------33-----------5-----------------------------------------|

Ending
Gb |-------------------------------||------------------------------------------|
Db |-------------------------------||------------------------------------------|
Ab |-------------------------------||-------6---------------------------------|
Gb |---33333333333333---||---3-------------------------------------|



Get this song at amazon.com      Ebay     Ringtones Ringtones  


Learn to play: Songwriting, Piano, Harmonica, Guitar
More Guns 'N' Roses lyrics available at Muzikum

Related Guns N Roses Bass Tabs

Dont Cry bass
Live N Let Die bass
Slash's Sweet Child Of Mine Intro On Bass bass
Double Talkin Jive bass
Sweet Child O Mine bass
Pretty Tied Up bass
Estranged bass
Welcome To The Jungle bass
Patience (live) bass
It s so easy bass
Since I Don Have You bass
Down On The Farm bass
Knocking On Heavens Door bass
Get In The Ring bass
14 Years bass
Raw Power bass
Don't Cry bass
I Dont Care About You bass
Think About You bass
You Could Be Mine bass


Guitar Tabs









All tabs are property and copyright of their owners. All tabs provided for educational purposes only. Privacy Policy, DMCA