Guns N Roses

Garden Of Eden (the Normal Version) Bass Tabs



More from Guns N Roses

Guns N Roses Tabs
Guns N Roses Chords
Guns N Roses Bass
Guns N Roses Lyrics



Tabbed By: Garth Rhodes
Tuning: 1/2 a step down on all strings
G-F#, D-C#, A-G#, E-D#

/ = slide (while picking)
s = slide
h = hammer-on
p = pull-off
H = hold/bend/ring

Coz ppl keep copying & pasting my other GOE tab, I decided to write the other
version of this tab, coz I didn't call the other tab The Insane Version for
nothing! This is how Duff plays this song in the video, if you had half a brain
you would notice...

INTRO:
F#---------------------------------------------
C#---------------------------------------------
G#---------------------------------------------
D#--------12s1-0H-------0--------0H----0000000-

VERSE:
F#-----------------------------------------------------------
C#-----------------------------------------------------------
G#-----------------------------------------------------------
D#--0-0-0-0-000-0-0-0-0-000-0-0-0-0-000-0-0-0-0-000-0-0-0-0--

"'Cause the kiss ass sycophants..."
F#-----------------------------------------------------------
C#-----------------------------------------------------------
G#-----------------------------------------------------------
D#--0-0-0-0-000-0-0-0-0-000-0-0-0-0-000-0-0-0-0-000-0-0-0-0--

"While they're bangin' out front.."
F#-----------------------------------------------------------
C#-----------------------------------------------------------
G#-----------------------------------------------------------
D#--3-3-3-3-333-3-3-3-3-333-3-3-3-3-333-3-3-3-3-333-3-3-3-3--

"'Cause the pissed-off rip-offs"
F#-----------------------------------------------------------
C#-----------------------------------------------------------
G#-----------------------------------------------------------
D#--3-3-3-3-333-3-3-3-3-333-3-3-3-3-333-3-3--3-3-3-3-3-3-3---

CHORUS: "This fire is burning and it's outta control..."
F#-------------------------------------------------------
C#--3h5-3------------------------------------------------
G#--------3h5p3-1-3-3-1-------------5-5---3--1-----------
D#----------------------3-3-1-3-3-1-----5-------3-3-1-3--

PRE VERSE:
F#-------------------------------------------------------------------------
C#-----------------------------------------------------3-4-5555555---------
G#-------------------------------------------------------------------------
D#--3-3-33-3-3-3-33-3-3-3-33-3-3-0-1-2-3-3-33-3-3-3-33-------------3-3-2-1-

VERSE 2:
F#-----------------------------------------------------------
C#-------------------------------2---------------------------
G#-----------------------------------------------------------
D#--0-0-0-0-000-0-0-0-0-000-0-0-0---000-0-0-0-0-000-0-0-0-0--

F#-----------------------------------------------------------
C#--2----------------------------2---------------------------
G#-----------------------------------------------------------
D#----0-0-0-0-000-0-0-0-0-000-0-0---0-000-0-0-0-0-12/5-------

PRE CHORUS: "Sometimes when I look out..."
F#----------------------------------------------------------------------
C#--------------------------------------------------------2-1-0---------
G#--0-0-00-0-3-0-00-0-3-0-00-0-3-0-00-0-3-0-00-0-3-0-00-0-------3-------
D#----------------------------------------------------------------0-2-3-

"Lost in the Garden of Eden..."
F#-----------------------------------------------------------
C#-----------------------------------------------------------
G#-----------------------------------------------------------
D#--3-3-3-3-333-3-3-3-3-333-3-3-3-3-333-3-3--3-3-3-3-3-3-3---

F#-----------------------------------------------------------
C#-----------------------------------------------------------
G#-----------------------------------------------------------
D#--3-3-3-3-333-3-3-3-3-333-3-3-3-3-333-3-3--3-3-3-3-3-3-3---

CHORUS 2
PRE VERSE 2
VERSE 3
PRE CHORUS 2

SOLO:
F#------------------------------------------------------------------------
C#------------------------------------------------------------------------
G#------------------------------------------------------------------------
D#--5555555555555555555555555555555555555555555555555555555555555-44-33-2-

F#------------------------------------------------------------------------
C#-------------------------------------------------5-6-7777777777---------
G#--222222222222222-------------------------------------------------------
D#------------------3333333333333333-5555555555555----------------5-5-4-3-

VERSE 4:
F#-----------------------------------------------------------
C#-----------------------------------------------------------
G#-----------------------------------------------------------
D#--3-3-3-3-333-3-3-3-3-333-3-3-3-3-333-3-3--3-3-3-3-3-3-3---

F#-----------------------------------------------------------
C#-----------------------------------------------------------
G#-----------------------------------------------------------
D#--3-3-3-3-333-3-3-3-3-333-3-3-3-3-333-3-3--3-3-3-3-3-3-3---

CHORUS 3

PRE CHORUS: "An we ain't talkin' about no poison apple or some missin' rib
ya hear..."
F#-----------------------------------------------------------
C#-----------------------------------------------------------
G#-----------------------------------------------------------
D#--3-3-3-3-333-3-3-3-3-333-3-3-3-3-333-3-3--3-3-3-3-3-3-3---

CHORUS 4:
F#-------------------------------------------------------
C#--3h5-3------------------------------------------------
G#--------3h5p3-1-3-3-1-------------5-5---3--1-----------
D#----------------------3-3-1-3-3-1-----5-------3-3-1-3--

SUCK ON THAT!



Get this song at amazon.com      Ebay     Ringtones Ringtones  


Learn to play: Songwriting, Piano, Harmonica, Guitar
More Guns 'N' Roses lyrics available at Muzikum

Related Guns N Roses Bass Tabs

The Garden bass
Bad Apples bass
Somewhere Over The Rainbow bass
Attitude bass
Bass Solo bass
Yesterdays bass
Paradice City bass
Don't Damn Me bass
Sweet Child Of Mine bass
Bad Obsession bass
Don't Cry bass
So Fine bass
Welcome To The Jungle bass
Knocking On Heavens Door bass
I Dont Care About You bass
Out Ta Get Me bass
Immigrants And Faots bass
Think About You bass
Used To Love Her bass
Welcom To The Jungle(out Of The Big Gold Book) bass


Guitar Tabs









All tabs are property and copyright of their owners. All tabs provided for educational purposes only. Privacy Policy, DMCA