Guns N Roses

Garden Of Eden (the Insane Version) Bass Tabs



More from Guns N Roses

Guns N Roses Tabs
Guns N Roses Chords
Guns N Roses Bass
Guns N Roses Lyrics



Tabbed By: Garth Rhodes
Tuning: 1/2 a step down on all strings
G-F#, D-C#, A-G#, E-D#

/ = slide (while picking)
s = slide
h = hammer-on
p = pull-off
H = hold/bend/ring

TIP: Go fast...

INTRO:
F#---------------------------------------------
C#---------------------------------------------
G#---------------------------------------------
D#--------12s1-0H-------0--------0H----0000000-

VERSE:
F#-----------------------------------------------------------
C#-----------------------------------------------------------
G#-----------------------------------------------------------
D#--0-00-0-0h2--0-0-0-0h3-0-5h6--0-00-0-0h2--0-0-0-0h3-0-5h6-

"'Cause the kiss ass sycophants..."
F#-----------------------------------------------------------
C#-----------------------------------------------------------
G#-----------------------------------------------------------
D#--0-00-0-0h2--0-0-0-0h3-0-5h6--0-00-0-0h2--0-0-0-2222222---

"While they're bangin' out front.."
F#-----------------------------------------------------------
C#-----------------------------------------------------------
G#-----------------------------------------------------------
D#--3-33-3-6h7--3-3-3-6-0-8h9-0--3-33-3-6h7--3-3-3-6-0-8h9-0-

"'Cause the pissed-off rip-offs"
F#-----------------------------------------------------------
C#-----------------------------------------------------------
G#-----------------------------------------------------------
D#--3-33-3-6h7--3-3-3-6-0-8h9-0--3-33-3-6h7--3-3-3-3-3-3-3---

CHORUS: "This fire is burning and it's outta control..."
F#-------------------------------------------------------
C#--(fire)--(burn)--(outta)--(prob)-----(stop)---(r n'r)-
G#--8-8h10p8---------------------------5-5---3-1---------
D#-----------8h10--6--8-8-6--3-3-0-3-0-----5-----3-3-1-3-

PRE VERSE:
F#-------------------------------------------------------------------------
C#-----------------------------------------------------3-4-5555555---------
G#-------------------------------------------------------------------------
D#--3-3-33-0-3-3-33-0-3-3-33-0-3-0-1-2-3-3-33-0-3-3-33-------------3-3-2-1-

VERSE 2:
F#-----------------------------------------------------------
C#-------------------------------2---------------------------
G#-----------------------------------------------------------
D#--0-00-0-0h2--0-0-0-0h3-0-5h6----00-0-0h2--0-0-0-0h3-0-5h6-

F#-----------------------------------------------------------
C#--2----------------------------2---------------------------
G#-----------------------------------------------------------
D#----00-0-0h2--0-0-0-0h3-0-5h6----00-0-0h2--0-0-0-12/5------

PRE CHORUS: "Sometimes when I look out..."
F#----------------------------------------------------------------------
C#----------------------------------------------------------------------
G#--------------------------------------------------------7-6-5-3-------
D#--5-5-55-5s8-5-55-5s8-5-55-5s8-5-55-5s8-5-55-5s8-5-55-5---------0-2-3-

"Lost in the Garden of Eden..."
F#-----------------------------------------------------------
C#-----------------------------------------------------------
G#-----------------------------------------------------------
D#--3-33-3-6h7--3-3-3-6-0-8h9-0--3-33-3-6h7--3-3-3-6-0-8h9-0-

F#-----------------------------------------------------------
C#-----------------------------------------------------------
G#-----------------------------------------------------------
D#--3-33-3-6h7--3-3-3-6-0-8h9-0--3-33-3-6h7--3-3-3-3-3-3-3---

CHORUS 2
PRE VERSE 2
VERSE 3
PRE CHORUS 2

SOLO:
F#------------------------------------------------------------------------
C#------------------------------------------------------------------------
G#------------------------------------------------------------------------
D#--5555555555555555555555555555555555555555555555555555555555555-44-33-2-

F#------------------------------------------------------------------------
C#-------------------------------------------------5-6-7777777777---------
G#--222222222222222-------------------------------------------------------
D#------------------3333333333333333-5555555555555----------------4-4-3-2-

VERSE 4:
F#-----------------------------------------------------------
C#-----------------------------------------------------------
G#-----------------------------------------------------------
D#--3-33-3-6h7--3-3-3-6-0-8h9-0--3-33-3-6h7--3-3-3-6-0-8h9-0-

F#-----------------------------------------------------------
C#-----------------------------------------------------------
G#-----------------------------------------------------------
D#--3-33-3-6h7--3-3-3-6-0-8h9-0--3-33-3-6h7--3-3-3-3-3-3-3---

CHORUS 3

PRE VERSE 3:
F#-------------------------------------------------------------------------
C#-----------------------------------------------------3-4-5555555---------
G#-------------------------------------------------------------------------
D#--3-3-33-0-3-3-33-0-3-3-33-0-3-0-1-2-3-3-33-0-3-3-33-------------3-3-2-1-

CHORUS 4:
F#-------------------------------------------------------
C#--(fire)--(burn)--(outta)--(prob)-----(stop)---(r n'r)-
G#--8-8h10p8---------------------------5-5---3-1---------
D#-----------8h10--6--8-8-6--3-3-0-3-0-----5-----3-3-1-3-



Get this song at amazon.com      Ebay     Ringtones Ringtones  


Learn to play: Songwriting, Piano, Harmonica, Guitar
More Guns 'N' Roses lyrics available at Muzikum

Related Guns N Roses Bass Tabs

Double Talkin Jive bass
Knocking On Heaven's Door bass
Right Next Door To Hell bass
Aint It Fun bass
Paradice City bass
Back Off Bitch bass
Youre Crazy bass
Immigrants And Faots bass
Chinese Democracy bass
Breakdown bass
Shot Gun Blues bass
Welcome To The Jungle (100%) bass
Prefect Crime bass
Night Train bass
Paradise City bass
Since I Dont Have You bass
Raw Power bass
Get In The Ring bass
Down On The Farm bass
So Fine bass


Guitar Tabs









All tabs are property and copyright of their owners. All tabs provided for educational purposes only. Privacy Policy, DMCA

Online converter - videoconverter.com