Guns N Roses

Estranged (rate Please) Tabs



More from Guns N Roses

Guns N Roses Tabs
Guns N Roses Chords
Guns N Roses Bass
Guns N Roses Lyrics




Artist: Guns N Roses

Composer: W. Axl Rose (music and lyrics)
/Slash\ (guitar)

Song: Estranged

Album: Use Your Illusion II

Tuning: tuned down one half step (hi to lo eb Bb Gb Db Ab Eb)

Notation:
p pull-off
h hammer-on
/ slide up
\ slide down
b bend
= sustain
(x) x is an optional/carried/ghost note
~ vibrato

If you need the power chords: http://hem.passagen.se/ak5/rancid/powerchords.html

|------------|---------------------|-----------------------|-------------|
|------------|---------------------|-----------------------|-------------|
|------------|---------------------|-----------------------|-------------|
|------------|---------------------|-----------------------|-------------|
|------------|-----------------10==|===================10==|=\\3---------|
|------------|---------------------|-----------------------|-------------|
When youíre talkiní to yourself and nobodyís home
You can fool yourself, you came in this world alone (alone)

|-----|------------|-------13b----10------|----------------13------|------|
|-----|----11--15b-|----11------------13b-|-13~=-------13b----13b==|=13\--|
|-12b-|-12---------|-12-------------------|------------------------|------|
|-----|------------|----------------------|------------------------|------|
|-----|------------|----------------------|------------------------|------|
|-----|------------|----------------------|------------------------|------|

G5 C5
|--------------|-------13b---10-----|-------------13-----|
|-----11--15b--|----11----------13b-|-13~~====13b----13b-|
|-/12----------|-12-----------------|--------------------|
|--------------|--------------------|--------------------|
|--------------|--------------------|--------------------|
|--------------|--------------------|--------------------|

Bb5 C5 G5
|----------------------------||-------13----|-----------------|------------|
|-13b15p13-11-13-11-11----11-||---13b----13-|-13------13--12b-|--(12)bbbb--|
|----------------------12----||-------------|-----------------|------------|
|----------------------------||-------------|-----------------|------------|
|----------------------------||-------------|-----------------|------------|
|----------------------------||-------------|-----------------|------------|

So nobody ever told you baby

Bb5 C5 G5
|--------------|-------------------13----|--------------|------|---------|
|-13p12--13p12-|-11-----------13b-----13-|---13--13-----|------|---------|
|--------------|-------------------------|----------14b-|-(14)-|-(14)----|
|--------------|-------------------------|--------------|------|---------|
|--------------|-------------------------|--------------|------|---------|
|--------------|-------------------------|--------------|------|---------|

So whatíll happen to you baby


Eb5 F5 G5 C5 Eb5 F5
|----|--------------||-----------------|------------------------|
|-11-|-(11)---(11)\-||----------13/15--|-------13/15------13p12-|
|----|--------------||-------12--------|----12------------------|
|----|--------------||----12-----------|-10---------------------|
|----|--------------||-10--------------|------------------------|
|----|--------------||-----------------|------------------------|

(one, two!)

G5 Eb5 F5 G5
|-----------------------|------------------------|-------------------|
|-13p12--------15==\----|-------13/15-(15)-13p12-|-13p12--------15===|
|-------12--------------|----12------------------|-------12----------|
|----------12-----------|-10---------------------|----------12-------|
|-----------------------|------------------------|-------------------|
|-----------------------|------------------------|-------------------|

Eb5 F5 G5 Eb5 F5 Gm F Eb G
|-------|------|------------||----|------|------|------|---------15--17b-|
|=15\13=|=13b==|\11===11p10-||----|------|------|------|-----------------|
|-------|------|------------||-12-|-(12)-|-(12)-|-(12)-|-(12)------------|
|-------|------|------------||----|------|------|------|-----------------|
|-------|------|------------||----|------|------|------|-----------------|
|-------|------|------------||----|------|------|------|-----------------|

Old at heart, but Iím only 28
much too late

F Eb G5 F5 G5
|-(17)-|----------------------|------------|------------|-------------------|
|------|-/13--11-10---10h11p10|------------|------------|-------------------|
|------|----------------------|-12-----12--|-10b---(10)-|-(10)--------------|
|------|----------------------|------------|------------|-------------------|
|------|----------------------|------------|------------|-------------------|
|------|----------------------|------------|------------|-------------------|

to find ourselves

F5 G5
I donít know how youíre síposed to find me lately

F5 G5
And what more could you ask from me?

F5 G5
How could you say that I never needed you

C5
when you took everything

D5
said you took everything from me?

G5 C5 Eb5 F5
|-----------------|------------------------|
|----------13/15--|-------13/15------13p12-|
|-------12--------|----12------------------|
|----12-----------|-10---------------------|
|-10--------------|------------------------|
|-----------------|------------------------|

G5 Eb5 F5 G5
|-----------------------|------------------------|-------------------|
|-13p12--------15==\----|-------13/15-(15)-13p12-|-13p12--------15===|
|-------12--------------|----12------------------|-------12----------|
|----------12-----------|-10---------------------|----------12-------|
|-----------------------|------------------------|-------------------|
|-----------------------|------------------------|-------------------|


Eb5 F5 G5 Eb5 F5
|-------|------|------------|
|=15\13=|=13b==|\11===11p10-|
|-------|------|------------|
|-------|------|------------|
|-------|------|------------|
|-------|------|------------|


G5 Eb5 Gm F Eb Gm F
|-----|------|------|------|-----15--15s17-|-18----18s20-|
|-----|------|------|------|---------------|-------------|
|-12--|-(12)-|-(12)-|-(12)-|-(12)----------|-------------|
|-----|------|------|------|---------------|-------------|
|-----|------|------|------|---------------|-------------|
|-----|------|------|------|---------------|-------------|

Young at heart, but it gets
Old at heart, but I mustnít hesitate

Eb Gm Gm7 C
|-(20)---18--17-18--15-|-15--||-(15)-----|-(15)--|-------------|----------||
|----------------------|-----||----------|-------|-------------|----------||
|----------------------|-----||----------|-------|-------------|------12b-||
|----------------------|-----||----------|-------|-------------|----------||
|----------------------|-----||-------10-|-(10)--|-(10)--10-s3-|-(3)------||
|----------------------|-----||----------|-------|-------------|----------||

if Iím to find Still talking


G5 C5
|-------------|-------13b--10-----|---------------13-----|
|----11--15b--|----11---------13b-|-13--(13)-13b-----13b-|
|-12----------|-12----------------|----------------------|
|-------------|-------------------|----------------------|
|-------------|-------------------|----------------------|
|-------------|-------------------|----------------------|

Bb5 C5
|-----------13------------------||-----------13----|------------------------------------|
|-13----13b-----13br(13)p11-----||-11---13b-----13-|-(13)---13----------------------12b-|
|----------------------------12-||-----------------|------------------------------------|
|-------------------------------||-----------------|------------------------------------|
|-------------------------------||-----------------|------------------------------------|
|-------------------------------||-----------------|------------------------------------|

So nobody

G5 Bb5 C5
|-/19------|--------------------|------------13---|------------13--13/15==--|
|-(12)-----|-------13p12-13p12--|-11----13b----13-|--13---13b---------------|
|-------14b|-(14)---------------|-----------------|-------------------------|
|----------|--------------------|-----------------|-------------------------|
|----------|--------------------|-----------------|-------------------------|
|----------|--------------------|-----------------|-------------------------|
So whatíll happen

G5 C5
|-(15)-|-(15)---13p12-|-----|------||
|------|--------------|-13--|--13--||
|------|--------------|-----|------||
|------|--------------|-----|------||
|------|--------------|-----|------||
|------|--------------|-----|------||

(ow!)

(easy little piano solo, and thenÖ)

C5 Eb5 C5 Eb5
|------------|----------------------|-------------|----------------------|
|------------|----------4---4p3-----|-3-----------|---------4--4p3-4p3---|
|-----5------|--------3---------5p3-|-----5-------|-------3-----------5p3|
|---5--------|----3h5---------------|---5---------|---3h5----------------|
|-3------3-5-|-6--------------------|---------3-5-|-6--------------------|
|------------|----------------------|-------------|----------------------|



C5 Eb5 Bb F C
|------------|---------------------|----|--|-1------------|-0------------|
|-3----------|-----------4--3------|-3--|--|-1------------|-1--------1---|
|-----5------|--------3-------5--3-|----|--|-2---------2--|-0------0-----|
|---5--------|---3--5--------------|----|--|-3-------3----|-2----2-------|
|--------3-5-|-6-------------------|----|--|-3-----3------|-3--3---------|
|------------|---------------------|----|--|-1---1--------|--------------|

G Bb C Bb C Bb F G/F
|-------------|----|-----|-----|--0--|-----|-------------|---------------|
|-3-----------|-3--|--1--|--3--|--1--|--3--|--1----------|-3-------------|
|-0---------0-|-3--|--0--|--3--|--0--|--3--|--2--------2-|-0--------0----|
|-0-------0---|-3--|--2--|--3--|--2--|--3--|--3------3---|-0------0------|
|-2-----2-----|-1--|--3--|--1--|--3--|--1--|--3----3-----|-2----2--------|
|-3---3-------|----|-----|-----|-----|-----|--1--1-------|-3--3----------|

Bb/F F C G Bb/F
|------------|---------------|-------------|--------------|----|
|-3--------3-|-1---------1---|-1---------1-|-3------------|-1--|
|-3------3---|-2-------2---0-|-0-------0---|-0--------0-0-|-3--|
|-3----3-----|-3-----3-------|-2-----2-----|-0------0-----|-3--|
|-1--1-------|-3---3---------|-3---3-------|-2----2-------|-3--|
|------------|-1-------------|-------------|-3--3---------|-1--|

C G F
|-----------------------------|-0--|-----------|---------|
|-----------------------------|-1--|-----------|---------|
|-----------------------------|-0--|-----------|---------|
|-------3-------------3---3---|-2--|-----------|---------|
|-----------------------------|-3--|-----------|---------|
|-1--1----1--1--1--1----1---1-|----|-----------|---------|

C G
|-----------------------------|-0--|-----------|-0------------------|------------------|
|-----------------------------|-0--|--1--1-----|-1------------------|-3----------------|
|-----------------------------|-0--|--0-----0--|-0----------------0-|-0--------0-------|
|-------3-------------3---3---|-2--|--2--------|-2--------------2---|-0------0---------|
|-----------------------------|-3--|--3--------|-3------------3-----|-2----2-----------|
|-1--1----1--1--1--1----1---1-|----|-----------|--------------------|-3--3-------------|
When I find reasons


F C G F C
|------------|--0--------|-------------|-------------|--0----------------|
|-1--------1-|--1--------|--3----------|--1--------1-|--1--------1-------|
|-2------2---|--0------0-|--0--------0-|--2------2---|--0------0---------|
|-3----3-----|--2----2---|--0------0---|--3----3-----|--2----2-----------|
|-3--3-------|--3--3-----|--2----2-----|--3--3-------|--3--3-------------|
|-1----------|-----------|--3--3-------|--1----------|-------------------|
another another seasons life
G F C G F C
|--------|--0-----------|-------------|------------|-0-------------------|
|-3---1--|--1---------1-|--3----------|-1--------1-|-1---------1---------|
|-0---2--|--0-------0---|--0--------0-|-2------2---|-0-------0-----------|
|-0---3--|--2-----2-----|--0------0---|-3----3-----|-2-----2-------------|
|-2---3--|--3---3-------|--2----2-----|-3--3-------|-3---3---------------|
|-3---1--|--------------|--3--3-------|-1----------|---------------------|
right, time but now broken of the on the ground
G F C G F
|------------|------------|-----------|-------||
|-3----------|-1--------1-|-1-------1-|-3---1-||
|-0--------0-|-2------2---|-0-----0---|-0---2-||
|-0------0---|-3----3-----|-2---2-----|-0---3-||
|-2----2-----|-3--3-------|-3-3-------|-2---3-||
|-3--3-------|-1----------|-0---------|-3---1-||
talk so loud walk anymore, and what for?
Guitar solo
C Am
|---------------------------|---------------------------|
|---------------------------|---------------------------|
|-5----------------5h7p5----|--5b--5==----------5h7p5---|
|-------------5h7--------(7)|--------------5h7-------(7)|
|---------------------------|---------------------------|
|---------------------------|---------------------------|

C F
|---------------------------|------------------------------|
|-8-------------------------|----------------------------6-|
|-----7b---7--5h7p5\4-5p4---|------------------------5/7---|
|-------------------------5-|--5b-3-5---3--5--3--5/7-------|
|---------------------------|---------5--------------------|
|---------------------------|------------------------------|

C
|-----6---6------8-8-8-----8-----8----|-------------------------------|
|-6/8---8---8/10-------11b---11b---11b|-11----------------------------|
|-------------------------------------|------------------17h19p17-----|
|-------------------------------------|------------17h19---------(19)-|
|-------------------------------------|-------------------------------|
|-------------------------------------|-------------------------------|

G F
|--------------------------------------|-----------------------------------|
|--------------------------------------|-----20---------------------20p18--|
|--17b---17~~----------17h19p17--------|-19b-------17------17--19----------|
|--------------17h19-------------(19)--|-----------------------------------|
|--------------------------------------|-----------------------------------|
|--------------------------------------|-----------------------------------|

|----------------------------------------------|---------------------------------------|
|--18p17---18-17h18p17----17-----17------------|--------------17--18--20--18/20---17b~\|
|----------------------19----19b----19--17-----|--19b~---19----------------------------|
|------------------------------------------19--|---------------------------------------|
|----------------------------------------------|---------------------------------------|
|----------------------------------------------|---------------------------------------|

|-0--|-----------|-0------------------|------------------|
|-0--|--1--1-----|-1------------------|-3----------------|
|-0--|--0-----0--|-0----------------0-|-0--------0-------|
|-2--|--2--------|-2--------------2---|-0------0---------|
|-3--|--3--------|-3------------3-----|-2----2-----------|
|----|-----------|--------------------|-3--3-------------|
Well I jumped river


F C G F C
|------------|--0--------|-------------|-------------|--0----------------|
|-1--------1-|--1--------|--3----------|--1--------1-|--1--------1-------|
|-2------2---|--0------0-|--0--------0-|--2------2---|--0------0---------|
|-3----3-----|--2----2---|--0------0---|--3----3-----|--2----2-----------|
|-3--3-------|--3--3-----|--2----2-----|--3--3-------|--3--3-------------|
|-1----------|-----------|--3--3-------|--1----------|-------------------|
make on my own all doesnít time
G F
|--------|
|-3---1--|
|-0---2--|
|-0---3--|
|-2---3--|
|-3---1--|
lines

A5 G5 F5 G5
Cause I see the storm is getting closer

A5 G5 F5 G5
And all the waves they get so high

A5 G5 F5 G5
Seems evrything we've ever known's here.

A5 G5 F5 D5 Bb5 G5 C5
Why must it drift away and dieÖ

(Slashís little bit before the solo)(delay)

|------------------------------------|
|-13b--13b-13b-----------13b--13==---|
|--------------12b--12b--------------|
|------------------------------------|
|------------------------------------|
|------------------------------------|


Guitar solo II
(some delay) F5
|------------------------------------|
|15b-15-p13--15b--15b-15-13--13-15-13|
|----------14---14---------14--------|
|------------------------------------|
|------------------------------------|
|------------------------------------|

C5 G5
|------18----------18-----------|----18----------18----------------------|
|-18b-----18----18----18--16----|-18b---18----18----18b--16--------------|
|----------------------------17-|--------------------------17------------|
|-------------------------------|----------------------------------------|
|-------------------------------|----------------------------------------|
|-------------------------------|----------------------------------------|

F5 C5 G5 C5
|---------------------------|-----------------------|---------------------|
|-15--15--------------------|-----------------------|---------------------|
|--------17----15-----------|--------15-------------|--------15-----------|
|------------------17-15-13-|-----15b------------13-|(13)--15b-15b-13-15b-|
|---------------------------|-15-----------13h15----|---------------------|
|---------------------------|-----------15----------|---------------------|

G5
|---------------------------------------15---|
|---------------------15h16p15--15-16-18--18-|
|------15-17-17--15-17--------17-------------|
|-15-17--------17----------------------------|
|--------------------------------------------|
|--------------------------------------------|

F5
|-18--15h18p15--15---------------------|------------------------------------------|
|---18--------15---18b--18--16--16-----|------------------------------------------|
|-----------------------------17--17p15|-17-17-15--15-----------------------------|
|--------------------------------------|---------17--17-15-13-15-13----15b-13-15b-|
|--------------------------------------|---------------------------15-13----------|
|--------------------------------------|------------------------------------------|

C5
|------------|-----------------------------|----------------------------||
|------------|-----------------------------|----------------------13----||
|------------|-----------------------------|-------------------12-------||
|-(15)-------|-(15)------------------------|----------------14----------||
|------------|-----------------------------|-------------15-------------||
|------------|-----------------------------|----------------------------||
Iíll never find anyone
G F C
|--------------|-------------|---------10/12-----|
|-12--------12-|-10-------10-|-8-----------------|
|-12------12---|-10-----10---|-9-----------------|
|-12----12-----|-10---10-----|-10----------------|
|-10--10-------|-8---8-------|-------------------|
|--------------|-------------|-------------------|
replace make time

G F C G5 C5 B5
|--10------------|------------|--------------|-0--||
|----------13/15-|--13--------|--------------|-1--||
|-------12-------|------17bbb-|--------------|-0--||
|-----10---------|------------|--------------|-2--||
|----------------|------------|-----0--------|-3--||
|----------------|------------|---------3--0-|----||
Without youÖ

A5 G5 F5 G5
I knew the storm was getting closer

A5 G5 F5 G5
And all my friends said I was high

A5 G5 F5 G5
But evrything we've ever known's here.

A5 G5 F5
I never wanted it to die

D5 C5 F C
|---|---|-1---|-(1)--|-0-||
|---|---|-1---|-(1)--|-1-||
|---|---|-2---|-(2)--|-0-||
|---|---|-3---|-(3)--|-2-||
|---|---|-3---|-(3)--|-3-||
|---|---|-1---|-(1)--|---||

(the chords F and C at the end also sounds good in power chords
and may be simpler, your choice)

(learn the piano part, it's worth it!)

Lyrics:

When you're talkin to yourself
And nobody's home
You can fool yourself
You came in this world alone
(Alone)

So nobody ever told you baby
How it was gonna be
So what'll happen to you baby
Guess we'll have to wait and see
One, two

Old at heart but I'm only 28
And I'm much too young
To let love break my heart
Young at heart but it's getting much too late
To find ourselves so far apart


I don't know how you're s'posed
To find me lately
An what more could you ask from me
How could you say that I never needed you
When you took everything
Said you took everything from me


Young at heart an it gets so hard to wait
When no one I know can seem to help me now
Old at heart but I musn't hesitate
If I'm to find my own way out


Still talkin' to myself and nobody's home
(Alone)


So nobody ever told us baby
How it was gonna be
So what'll happen to us baby
Guess we'll have to wait and see


When I find out all the reasons
Maybe I'll find another way
Find another day
With all the changing seasons of my life
Maybe I'll get it right next time
An now that you've been broken down
Got your head out of the clouds
You're back down on the ground
And you don't talk so loud
An you don't walk so proud
Any more, and what for


Well I jumped into the river too many times
to make it home
I'm out here on my own, an drifting all alone
If it doesn't show give it time
To read between the lines
'Cause I see the storm getting closer
And the waves they get so high
Seems everything We've ever known's here
Why must it drift away and die


I'll never find anyone to replace you
Guess I'll have to make it thru, this time
Oh this time
Without you


I knew the storm was getting closer
And all my friends said I was high
But everything we've ever known's here
I never wanted it to die



Get this song at amazon.com      Ebay     Ringtones Ringtones  


Learn to play: Songwriting, Piano, Harmonica, Guitar
More Guns 'N' Roses lyrics available at Muzikum

Related Guns N Roses Tabs

Youre Crazy tabs
Paradise City Outro tabs
Song Collection tabs
Youre Crazy (Acoustic) tabs
Blues tabs
Sweet Child O Mine Solo tabs
Sweet Child O Mine tabs
Live And Let Die (greatest Hits) tabs
G N' R Lies (album) tabs
Double Talkin Jive tabs
Patience (lead) tabs
Knockin On Heavens Door tabs
Johnny Came Marching Home tabs
Paitince tabs
Civial War tabs
Anything Goes tabs
Crash Diet tabs
Dont Cry tabs
Out Ta Get Me tabs
Civil War tabs


Guitar Tabs









All tabs are property and copyright of their owners. All tabs provided for educational purposes only. Privacy Policy, DMCA