Guns N Roses

Estranged Bass Tabs



More from Guns N Roses

Guns N Roses Tabs
Guns N Roses Chords
Guns N Roses Bass
Guns N Roses Lyrics



this is a great song and i noticed no one tabbed it so i did.

tune down 1/2 step

~=let note ring


bass enters at about 0:08

"when ur talking to urself..."

Gb-----------------------------------|
Db-----------------------------------|
Ab-----------------------------------|
Eb--3~---------3~----------3~--------|

when the guitar comes in play this

Gb----------------------------------------------|
Db--5~--55-5~-----------------------------------| 2x
Ab-------------5~--55-5~--3~--33-3~--3~--33-3~--|
Eb----------------------------------------------|

Gb----------------------------------------------|
Db----------------------------------------------| 2x
Ab--5~--55-5~--3~--33-3~------------------------|
Eb------------------------3~--33-3~--3~--33-3~--|

Gb-----------------|
Db-----------------|
Ab--3~-----3~------|
Eb-----------------|

Gb----------------------|
Db--5~--5~--------------| 2x
Ab----------3~--33-3-33-|
Eb----------------------|

Gb--------------------|
Db--5~----------------| 2x
Ab----------3~--3-5~--|
Eb--------------------|

when axl comes in and sings "old at heart but im only 28" play this

Gb----------------------|
Db----------------------| 2x
Ab--5----3--------------|
Eb------------3----3----|

when the guitar comes back in play this after axl says "i dont know how ur supposed to find
me lately" play this

Gb-----------------------------------------|
Db-------------------5~--------------------|
Ab-------------------------3~----3~--------|
Eb--3~--3-3-3~--3-3------------------------|


after "said u took everything from me"
Gb------------------------|
Db--5~--5~----------------| 2x
Ab------------3~--33-3-33-|
Eb------------------------|

Gb--------------------|
Db--5~----------------| 2x
Ab----------3~--3-5~--|
Eb--------------------|

Gb----------------------|
Db----------------------| 2x
Ab--5----3--------------|
Eb------------3----3----|

axl sings some stuff in a pause and then u come in with the guitar with this

Gb----------------------------------------------|
Db--5~--55-5~-----------------------------------|
Ab-------------5~--55-5~--3~--33-3~--3~--33-3~--|
Eb----------------------------------------------|

Gb----------------------------------------------|
Db----------------------------------------------| 2x
Ab--5~--55-5~--3~--33-3~------------------------|
Eb------------------------3~--33-3~--3~--33-3~--|



Gb---------|
Db---------|
Ab--3~-----|
Eb---------|

then comes the piano solo thing and play this under that

Gb-----------------------------------------------------------------------------------|
Db-----------------------------------------------------------------------------------|
Ab--3~----1~-------------------1-3~----1~------------------1-3~----1~----------------|
Eb--------------3~----3~---3-3---------------3~----3~---3----------------3~----3~----|

Gb--------------------------------------------------------------|
Db--------------------------------------5~----------5~----------|
Ab--5~--5-5~--3~--3-3~------------3~----------3~----------3~----|
Eb----------------------3~--3-3~--------------------------------|

when the guitar comes back in play this

Gb-------------------------------------------------------------------------------|
Db--5~----------------------------5~--5-5~---------------------------------------|
Ab--------3~--3~-----------------------------3~--3-3~----------------------------|
Eb----------------3~----3~--3-3~-----------------------3~--3-3~--3-3-3-3-3-3-3-3-|

Gb----------------------------------------------------------|
Db----------------------------------------------------------|
Ab--3~----------3~---------------------3~---------3~--------|
Eb--------3~----------3-3-3-3-3-3-3-3-----------------------|

Gb---------------------------------------------------------|
Db--5~--5~--5-5~-------------------------------------------|
Ab----------------3~--3~--3-3~-----------------------------|
Eb------------------------------3~--3~--3-3~--3~--3~--3-3~-|

Gb------------------------------------------|
Db--5~--5~--5-5~----------------------------|
Ab----------------3~--3~--3-3~--------------|
Eb--------------------------------3~--3~----|

Gb--------------------------------------------|
Db--5~--5~--5-5~------------------------------|
Ab----------------3~--3~--3-3~----------------|
Eb------------------------------3~--3~--3-3~--|

Gb-----------------------------------------------------------------------|
Db-----------------------------------------------------------------------|
Ab--5~--5~--5-5~--3~--3~--3-3~-------------------------------------------|
Eb------------------------------3~--3~--3-3~--3~--3~--3-3~--3~--3~--3-3~-|

guitar solo

Gb-----------------------------------------------------------------------|
Db--5~--5~--5-5~---------------------------------------------------------|
Ab----------------3~--3~--3-3~------------------------------3~--3~--3-3--|
Eb------------------------------3~--3~--3-3~--3~--3~--3-3~---------------|

Gb----------------------------------------------------------------------------|
Db--5~--5~--5-5~--------------------------------------------------------------|
Ab----------------3~--3~--3-3~------------------------------3~----------3~----|
Eb------------------------------3~--3~--3-3~--3~--3~--3-3~--------------------|

"when i jump into the river..."


Gb-----------------------------------------------------------------------|
Db--5~--5~--5-5~---------------------------------------------------------|
Ab----------------3~--3~--3-3~-------------------------------------------|
Eb------------------------------3~--3~--3-3~--3~--3~--3-3~---------------|

Gb--------------------------------------------|
Db----------------5~--5~--5-5~----------------|
Ab--3~--3~--3-3~----------------3~--3~--3-3~--|
Eb--------------------------------------------|

"i see the storm is getting closer..."

Gb--------------------|
Db--------------------| 3x
Ab--3~--3~------------|
Eb----------3~--3-3~--|

Gb--------------------------------|
Db--3~----0~----------------------|
Ab--------------1~----------3~----|
Eb--------------------3~----------|

when slash is doing the wierd guitar solo thing play this under it

Gb--------------------------------------|
Db--------------------------------------|
Ab--3~----------------3~----------3~----|
Eb--------3~----3~----------3~----------|

then when thats done play this

Gb-------------------------|
Db--5~---------------------| 2x
Ab-------3~----------3~----|
Eb-------------3~----------|

Gb--------------|
Db--5~----------|
Ab--------3~----|
Eb--------------|

Gb---------------------------------------------------------------|
Db--5~--5-5~------------------------5~--5-5~---------------------|
Ab----------3--3-3~--------3~--3-3~-----------3~----3----3~--3-2-|
Eb-----------------3~--3-3~-----------------------3---3~---------|

"i know the storm is getting closer..."

Gb--------------------|
Db--------------------| 3x
Ab--3~--3~------------|
Eb----------3~--3-3~--|

Gb--------------5~---5~-------------|
Db-----------------------5-3-5------|
Ab--3~--3~--3~------------------3~--|
Eb----------------------------------|

please rate. any suggestions or comments email me at mkengmana@trevornet.org

Brought to you by the BassMasta - http://www.tabs-database.com



Get this song at amazon.com      Ebay     Ringtones Ringtones  


Learn to play: Songwriting, Piano, Harmonica, Guitar
Also available at Muzikum: Guns 'N' Roses - Estranged lyrics

Related Guns N Roses Bass Tabs

Back Off Bitch bass
Paradise City (standard Tuning) bass
Bad Apples bass
Bass Solo bass
Coma (full Transcription) bass
Welcom To The Jungle(out Of The Big Gold Book) bass
You Could Be Mine bass
Sweet Child O Mine Intro bass
Breakdown bass
Dont Cry bass
Knockin on heavans door bass
It s so easy bass
Coma bass
Sweet Child Of Mine bass
Shot Gun Blues And Lyrics bass
14 Years bass
New Rose bass
Garden Of Eden bass
Double Talkin Jive bass
Don' Cry bass


Guitar Tabs









All tabs are property and copyright of their owners. All tabs provided for educational purposes only. Privacy Policy, DMCA