Guns N Roses

Double Talkin Jive Bass Tabs



More from Guns N Roses

Guns N Roses Tabs
Guns N Roses Chords
Guns N Roses Bass
Guns N Roses Lyrics



Double Talkin' Jive


Guns N'Roses-Words and Music by Izzy Stradlin'
DUFF




F#||--------------------------|--------------------------|
C#||--------------------------|--------------------------|
G#||--7--7--7--7--7--7--7--7--|--5--5--5--5--5--5--5--5--|
D#||--------------------------|--------------------------|



--------------------------|------------------------||------------------------|
--------------------------|------------------------||*-------2-------2----2--|
--2--2--2--2--1--1--1--1--|--0--0--0--0------------||*-----------------------|
--------------------------|--------------3b---0----||---0---------0----------|


3x
--------------------------||--------------------------|
-------------------------*||*-------2--2--2--2--2--2--|
-------------2--0-----0--*||*-------------------------|
----0--3--0--------3------||---0----------------------|


2x
--------------------------||-----------------------|-------------------------|
-------------------------*||-------2-------2----2--|-------------------------|
-------------2--0-----0--*||-----------------------|-------------2--0-----0--|
----0--3--0--------3------||--0---------0----------|----0--3--0--------3-----|



----------------------|--------------------|-----------------------|
----------------------|--------------------|-------2-------2----2--|
--3--3--3--3----------|--2--2--------------|-----------------------|
----------------------|--------------------|--0---------0----------|



-------------------------|----------------------|--------------------|
-------------------------|----------------------|--------------------|
-------------2--0-----0--|--3--3--3--3----------|--2--2--------------|
----0--3--0--------3-----|----------------------|--------------------|


3x
|------------------------|--------------------------||
|*-------2-------2----2--|-------------------------*||
|*-----------------------|-------------2--0-----0--*||
|---0---------0----------|----0--3--0--------3------||


2x
--------------------------|--------------------------||-----------------------|
*-------2--2--2--2--2--2--|-------------------------*||-------2-------2----2--|
*-------------------------|-------------2--0-----0--*||-----------------------|
---0----------------------|----0--3--0--------3------||--0---------0----------|



-------------------------|----------------------|--------------------|
-------------------------|----------------------|--------------------|
-------------2--0-----0--|--3--3--3--3----------|--2--2--------------|
----0--3--0--------3-----|----------------------|--------------------|



-----------------------|-------------------------|----------------------|
-------2-------2----2--|-------------------------|----------------------|
-----------------------|-------------2--0-----0--|--3--3--3--3----------|
--0---------0----------|----0--3--0--------3-----|----------------------|


3x
--------------------||------------------------|--------------------------||
--------------------||*-------2-------2----2--|-------------------------*||
--2--2--------------||*-----------------------|-------------2--0-----0--*||
--------------------||---0---------0----------|----0--3--0--------3------||



-------------------------|-------------------------|-------------------------|
-------------------------|-------------------------|-------------------------|
-------------------------|-------------------------|-------------------------|
--0--1--1--1----1--1--1--|--0--1--1--1----1--1--1--|--0--1--1--1----1--1--1--|



------------------------|-----------------------|-------------------------|
------------------------|-------2-------2----2--|-------------------------|
------------------------|-----------------------|-------------2--0-----0--|
--0--1--1--1--3----1----|--0---------0----------|----0--3--0--------3-----|



-------------------------|-------------------------|-------------------------|
-------2--2--2--2--2--2--|-------------------------|-------------------------|
-------------------------|-------------2--0-----0--|-------------------------|
--0----------------------|----0--3--0--------3-----|--0--1--1--1----1--1--1--|



-------------------------|-------------------------|------------------------|
-------------------------|-------------------------|------------------------|
-------------------------|-------------------------|------------------------|
--0--1--1--1----1--1--1--|--0--1--1--1----1--1--1--|--0--1--1--1--3----1----|



-----------------------|-------------------------|-------------------------|
-------2-------2----2--|-------------------------|-------2--2--2--2--2--2--|
-----------------------|-------------2--0-----0--|-------------------------|
--0---------0----------|----0--3--0--------3-----|--0----------------------|



-------------------------|-------------------------|-------------------------|
-------------------------|-------------------------|-------------------------|
-------------2--0-----0--|-------------------------|-------------------------|
----0--3--0--------3-----|--0--1--1--1----1--1--1--|--0--1--1--1----1--1--1--|



-------------------------|------------------------|-----------------------|
-------------------------|------------------------|-------2-------2----2--|
-------------------------|------------------------|-----------------------|
--0--1--1--1----1--1--1--|--0--1--1--1--3----1----|--0---------0----------|



-------------------------|-------------------------|-------------------------|
-------------------------|-------2--2--2--2--2--2--|-------------------------|
-------------2--0-----0--|-------------------------|-------------2--0-----0--|
----0--3--0--------3-----|--0----------------------|----0--3--0--------3-----|



-------------------------|-------------------------|-------------------------|
-------------------------|-------------------------|-------------------------|
-------------------------|-------------------------|-------------------------|
--0--1--1--1----1--1--1--|--0--1--1--1----1--1--1--|--0--1--1--1----1--1--1--|



------------------------|-----------------------|-------------------------|
------------------------|-------2-------2----2--|-------------------------|
------------------------|-----------------------|-------------2--0-----0--|
--0--1--1--1--3----1----|--0---------0----------|----0--3--0--------3-----|



-------------------------|-------------------------|-------------------------|
-------2--2--2--2--2--2--|-------------------------|-------------------------|
-------------------------|-------------2--0-----0--|-------------------------|
--0----------------------|----0--3--0--------3-----|--0--1--1--1----1--1--1--|



-------------------------|-------------------------|------------------------|
-------------------------|-------------------------|------------------------|
-------------------------|-------------------------|------------------------|
--0--1--1--1----1--1--1--|--0--1--1--1----1--1--1--|--0--1--1--1--3----1----|



-----------------------|-------------------------|-------------------------|
-------2-------2----2--|-------------------------|-------2--2--2--2--2--2--|
-----------------------|-------------2--0-----0--|-------------------------|
--0---------0----------|----0--3--0--------3-----|--0----------------------|



-------------------------|-------------------------|-------------------------|
-------------------------|-------------------------|-------------------------|
-------------2--0-----0--|-------------------------|-------------------------|
----0--3--0--------3-----|--0--1--1--1----1--1--1--|--0--1--1--1----1--1--1--|



-------------------------|------------------------|-----------------------|
-------------------------|------------------------|-------2-------2----2--|
-------------------------|------------------------|-----------------------|
--0--1--1--1----1--1--1--|--0--1--1--1--3----1----|--0---------0----------|



-------------------------|-------------------------|-------------------------|
-------------------------|-------2--2--2--2--2--2--|-------------------------|
-------------2--0-----0--|-------------------------|-------------2--0-----0--|
----0--3--0--------3-----|--0----------------------|----0--3--0--------3-----|



-------------------------|-------------------------|-------------------------|
-------------------------|-------------------------|-------------------------|
-------------------------|-------------------------|-------------------------|
--0--1--1--1----1--1--1--|--0--1--1--1----1--1--1--|--0--1--1--1----1--1--1--|



------------------------|-----------------------|-------------------------|
------------------------|-------2-------2----2--|-------------------------|
------------------------|-----------------------|-------------2--0-----0--|
--0--1--1--1--3----1----|--0---------0----------|----0--3--0--------3-----|



-------------------------|-------------------------|-------------------------|
-------2--2--2--2--2--2--|-------------------------|-------------------------|
-------------------------|-------------2--0-----0--|-------------------------|
--0----------------------|----0--3--0--------3-----|--0--1--1--1----1--1--1--|



-------------------------|-------------------------|------------------------|
-------------------------|-------------------------|------------------------|
-------------------------|-------------------------|------------------------|
--0--1--1--1----1--1--1--|--0--1--1--1----1--1--1--|--0--1--1--1--3----1----|



-------------------||
-------------------||
-------------------||
--0----------------||









Get this song at amazon.com      Ebay     Ringtones Ringtones  


Learn to play: Songwriting, Piano, Harmonica, Guitar
Also available at Muzikum: Guns 'N' Roses - Double talkin' jive lyrics

Related Guns N Roses Bass Tabs

Don't Damn Me bass
Shot Gun Blues bass
Don' Cry bass
Slash's Sweet Child Of Mine Intro On Bass bass
Bad Obsession bass
Ain`t It Fun bass
14 Years bass
Your Crazy bass
Attitude bass
Right Next Door To Hell bass
So Fine bass
I Dont Care About You bass
My Michelle bass
Paradise City bass
Big Dumb Sex bass
Sweet Child O Mine Bass Tab bass
Shot Gun Blues And Lyrics bass
Live And Let Die bass
Out Ta Get Me bass
Guns N Roses Live And Let Die Ver 2 bass


Guitar Tabs









All tabs are property and copyright of their owners. All tabs provided for educational purposes only. Privacy Policy, DMCA