Guns N Roses

Dont Cry 100 % Tabs



More from Guns N Roses

Guns N Roses Tabs
Guns N Roses Chords
Guns N Roses Bass
Guns N Roses Lyrics




Am Dm G C G/B C Am Dm
e:----------0-------------1-----------3-----------------------------0-------------1------
B:------------1---------3---3-----------3-----------------------------1---------3---3----
G:--------2-----2-----2-------2-----0-----0-------0-----0---------------2-----2-------2--
D:----2-2---------0-0-------------0-------------0-----0-------------------0-0-----------0
A:------------------------------------------0-3-----2-----3-2-0--------------------------
E:3-----------------------------3--------------------------------------------------------

G Am
e:-----------------|
B:-----------------|
G:----0------------|
D:-----------------|
A:------------0-0--|
E:3-------3-3------|

Verse

Am Dm G C G/B Am
e:--------0-------------1---------------3-----------------------------0-------
B:----------1-------------3-----------3---3---3-------------------------1-----
G:------------2-------2-----2-------0-------0-------0-----0---------------2---
D:----2---------2-0-----------0-------------------------0-----------2-------2-
A:0---------------------------------------------3-----2-----3-2-0-------------
E:------------------------------3---------------------------------------------

Dm G C G/B C Am Dm
e:------1-------------3-------------------------3-0-------------1-------
B:--------3---0-3-----------0-1---0-----------------1-------------3---0-
G:--2-------2-------0-----0-----0-----0---------------2-----2-------2---
D:0---------------0-------------------------------------0-0-------------
A:--------------------------------------3-2-0---------------------------
E:----------------------------------------------------------------------

G C G/B C Am Dm G
e:------0-3-------------------3p0-0-0-0-----------0---0-1-------------0-3-----
B:3---------3---1-----0-----------------1-----------3-----3---0-3---------3---
G:--0---------0---0-0---0-----------------2-----------------2-------0-------0-
D:----0---------------------------------------0-------------------0-----------
A:------------------------3-2-------------------------------------------------
E:----------------------------------------------------------------------------

C
e:----------|
B:----------|
G:--0-----0-|
D:----------|
A:3---2-0---|
E:----------|

Chorus 1

F G Am F G Am F G C C/B Am
e:------------0------1---1-3---3-------------------------1---1-3---3-0-----3-----0---
B:1---1-0---0-1------1---1-0---0-----1-0-3-3-3p1-1-1-----1---1-0---0-1---1---------1-
G:2---2-0---0-2------2---2-0---0---2-------------------0-2---2-0---0-0---------2-----
D:3---3-0---0-2------3---3-0---0---------------------0---3---3-0---0-2---------------
A:3---3-2---2-0------3---3-2---2-0-----------------------3---3-2---2-3-2-----0-------
E:1---1-3---3--------1---1-3---3-------------------------1---1-3---3-----------------

C/G
e:------0-|
B:----1---|
G:--------|
D:--------|
A:0-------|
E:--------|

Chorus 2

F G Am F G Am F G
e:1---1-3---3---------------3-0-----------1---1-------------------------1---1-3---3-
B:1---1-0---0-------0---------------------1---1-----3-------11111311113-1---1-0---0-
G:2---2-0---0-----2-----2-------2---------2---2---0---0-----22222222222-2---2-0---0-
D:3---3-0---0---------------------2---0---3---3-------------22222222222-3---3-0---0-
A:3---3-2---2-0-------------------------2-3---3---------2-0-------------3---3-2---2-
E:1---1-3---3-----------------------------1---1-3-----------------------1---1-3---3-
clean

C Bm Am G F G
e:3-------------------3-------------|
B:x-------------------3-------------|
G:5---4---2---0-------4-------------|
D:5---4---2---0-3-----5-----7v-hold-|
A:3---2---0---5-3-----5-------------|
E:------------3-1-----3-------------|


Solo with distortion (this is pretty tough but u can get it just try)

Dm F G Am G F G
e:----------------------------------------------------------------------------------10^10
B:------------------8---------8-8-----------------------------------------------8h10-----
G:7br-5-7---7br-5-7^--7br-5-7^----7r-5-------------7s9-9s10-10s12-12s14-5h7-7s9----------
D:-------------------------------------7-5-----------------------------------------------
A:-----------------------------------------5br-3---5s7-7s8---8s10-10s12------------------
E:---------------------------------------------------------------------------------------

Am F G E F
e:----------------------------------15-15-----------15-15------------------------------13
B:10-8---------------------------15^------15r-13-15^------15r-13-12------121513121513----
G:-----9-8h9p8-8p757p5---5---------------------------------------------13----------------
D:--------------------7p5-7575--------------------------------------14---------------15--
A:---------------------------------------------------------------------------------------
E:---------------------------------------------------------------------------------------

F G Am
e:---------------------------------------------------|
B:13-15br-15v---15br-13----10------------7^----------|
G:----------------------12^---12-9-7br-5-7^-feedback-|
D:---------------------------------------------------|
A:---------------------------------------------------|
E:---------------------------------------------------|

Chorus 3 (distortion)

F G Am F G Am F
e:-----------------------------------------------------------15^^v-15^^-15-12-----------
B:-------------15^-15r15r15r15-15br-13-15p13---------------------------------15br131513-
G:------------------------------------------14------------------------------------------
D:3-----5-------------------------------------------------------------------------------
A:3-----5-------------------------------------------------------------------------------
E:1-----3-------------------------------------------------------------------------------

G C C/B Am G F G F G
e:------------------------------------------------------------------------
B:15br-15-13-15--15^---15r----12^---12r-----------------------------------
G:---------------------------------------14^-----------------14r-feedback-
D:------------------------------------------------------------------------
A:------------------------------------------------------------------------
E:------------------------------------------------------------------------

F G E F F G F G F G C
e:-----------------------------------------------------------13---15^-15r--------------
B:---------------------------------12h13-----15br15---15p13---------------15br-13---13-
G:--------------------------------------14----------------------------------------14---
D:3---5---2222222233333333-3---5-------------------------------------------------------
A:3---5---2222222233333333-3---5-------------------------------------------------------
E:1---3---0000000011111111-1---3-------------------------------------------------------

e:12-12----------12-12----13------13-----12----10---8---------|
B:------13-13-13-------13-------------------------------------|
G:---------------------------13br-----12----10----9---7-----5-|
D:------------------------------------------------------5s7---|
A:------------------------------------------------------------|
E:------------------------------------------------------------|

this is one of my fav songs from one of my fav bands awsome to play enjoy



Get this song at amazon.com      Ebay     Ringtones Ringtones  


Learn to play: Songwriting, Piano, Harmonica, Guitar
More Guns 'N' Roses lyrics available at Muzikum

Related Guns N Roses Tabs

Whole Lotta Rosies tabs
Patience Bass tabs
Song Collection tabs
Look At Your Game Girl tabs
Dust N Bones tabs
Paridice City tabs
Civial War tabs
Knockin On Heavens Door tabs
14 Years tabs
Mama Kin tabs
Gnr Lies Album tabs
November Rains Solo tabs
Yeasterdays tabs
Sweet Child O Mine Intro tabs
The Garden tabs
Use Your Illusion tabs
Nightrain tabs
Johnny Came Marching Home tabs
Double Talking Jive tabs
Its Alright tabs


Guitar Tabs









All tabs are property and copyright of their owners. All tabs provided for educational purposes only. Privacy Policy, DMCA