Guns N Roses

Don't Cry (standard Tuning) Bass Tabs



More from Guns N Roses

Guns N Roses Tabs
Guns N Roses Chords
Guns N Roses Bass
Guns N Roses Lyrics



Title: Dont Cry (Standard Tuning)
Artist: Guns n Roses
Album: Use Your Illusion I & II

Instrument: 4 String Bass

Tabbed by: Bryce Kirk (bass_player1010@hotmail.com)

Just in case you're to lazy to tune down...

Intro :06
G|------------------------|
D|------------------------|
A|-2-1-21----4------------|
E|-------4-------2--0012--|

Verse 1 :18
G|----------------------------------------------|
D|----------------------------------------------|
A|-----4-------2-1-21----4-------2-1--21-----4--|
E|-4-------2---------4-------2-----------4------|

G|----------------------------------|
D|----------------------------------|
A|------2-1-21------4--------2--1-4-|
E|-02-----------4--4----012---------|

Chorus :49
G|-----------------------------------------------|
D|-----------------------------------------------|
A|-----------------------------------------------|
E|-0--0--2--2--4--4-44-4-2-0--0--2--2--4--4-2-44-|

G|------------------------------------------|
D|------------------------------------------|
A|--------------------2--1------------------|
E|-2-0--0--2--2--------4--2--0--0--2--2--4--|

Verse 2 1:19
G|-----------------------------------------------|
D|-----------------------------------------------|
A|-----4-------2-1-21----4-------2-1--21-----4---|
E|-4-------2---------4------012-----------4------|

G|----------------------------------|
D|----------------------------------|
A|----2-1-21----4-------2--1--------|
E|-2--------4-------012-------4--2--|

Chorus 1:52
G|-----------------------------------------------|
D|-----------------------------------------------|
A|-----------------------------------------------|
E|-0--0--2--2--4--4-44-4-2-0--0--2--2--4--4-2-44-|

G|------------------------------------------|
D|------------------------------------------|
A|---------------2--1-----------------------|
E|-2-0--0--2--2--------4--2--0--0--2--2--4--|

Solo 2:19
G|------------------------------------------------------------------|
D|------------------------------------------------------------------|
A|------------------------------------------------------------------|
E|444444444444-2-0--0--2--2--4--4-44-4-2-0--0--2--2--4--4-24-24-2-0-|

G|--------------------------------------|
D|--------------------------------------|
A|--------------------------------------|
E|-0--2--2--000000000000-0--0--2--2--4--|

Verse 3 2:54
G|---------------------------------------------------------|
D|---------------------------------------------------------|
A|-4-------2-1-21----4--------2-1-21-----4--------2-1-21---|
E|-----2---------4-------02----------4--4----02---------4--|

G|------------------------------|
D|------------------------------|
A|-4-----------21---2--1--------|
E|-----012--2/4--42-------4--2--|

Chorus/Outro 3:25
G|------------------------------------------------------------|
D|------------------------------------------------------------|
A|------------------------------------------------------------|
E|-0--0--2--2--4--4-44-4-2-0--0--2--2--4--4-2-44-2-0--0--2--2-|

G|--------------------------------------------------------------|
D|--------------------------------------------------------------|
A|-2--1---------------------------------------------------------|
E|-------4--2--0--0--2--2--0--0--2--2--0--0--2--2--000000000000-|

G|-----------------------------------------|
D|-----------------------------------------|
A|-------------------------------------2---|
E|-0--0--2--2--0--0--2--2--0--0--2--2------|



Get this song at amazon.com      Ebay     Ringtones Ringtones  


Learn to play: Songwriting, Piano, Harmonica, Guitar
More Guns 'N' Roses lyrics available at Muzikum

Related Guns N Roses Bass Tabs

Aint It Fun bass
Dont Cry bass
Sweet Child O Mine Intro bass
Knockin On Heavens Door (standard Tunin) bass
Welcome To The Jungle (100%) bass
Shot Gun Blues And Lyrics bass
Garden Of Eden bass
Outta Get Me bass
Knocking On Heavens Door bass
Civil War bass
Hair Of The Dog bass
Reckless Life bass
Prefect Crime bass
Coma (full Transcription) bass
Breakdown bass
November Rain bass
Paradise City (standard Tuning) bass
Locamotive bass
Since I Dont Have You bass
Pretty Tied Up bass


Guitar Tabs









All tabs are property and copyright of their owners. All tabs provided for educational purposes only. Privacy Policy, DMCA