Guns N Roses

Coversongs Collection Tabs



More from Guns N Roses

Guns N Roses Tabs
Guns N Roses Chords
Guns N Roses Bass
Guns N Roses Lyrics



Since I Donīt Have You
Guns N' Roses
The Spaghetti Incident?


E:|-----------------------------------------------------------------------|
B:|-----------------------------------------------------------------------|
G:|-------16fb~~----------------------------------------------------------|
D:|-------------------18fb-(18)-16-18~~---(18)-h19-p18-p16----------------|
A:|---16----------------------------------------------------17b-----(16)--|
E:|-----------------------------------------------------------------------|
E:|-----------------------------------------------------------------------|
B:|-----------------------------------------------------------------------|
G:|-------16fb~~----------------------------------------------------------|
D:|-------------------18fb-(18)-16-18^----(18)-h19-p18-p16----------------|
A:|--16-----------------------------------------------------17b-----(16)--|
E:|-----------------------------------------------------------------------|
E:|-----------------------------------------------------------------------|
B:|-----18fb-18-18fb-18-p16-16fb-16---------------------------------------|
G:|----------------------------------h18----------------------------------|
D:|--------------------------------------h19-p18-----h19-p18-p16----------|
A:|-(16)-----------------------------------------------------------17hb---|
E:|-----------------------------------------------------------------------|
E:|-----------------------------------------------------------------------|
B:|-----------------------------------------------------------------------|
G:|-----------------------------------------------------------------------|
D:|--13-13fb-13--h15----s18~---13fb~~~-13~~-13fb------------11-13-11------|
A:|-----------------------------------------------------h13---------------|
E:|-----------------------------------------------------------------------|
h: Hammer on
p: Pull-off
b: bend
s: slide to
~: Vibrato

Here are the chords:
Intro: G C D G C Cm G Cm Am D
(G Em Am Cm G Em G C Am D)
G Cm D
I donīt have plans and schemes
G Cm D
And I donīt have hopes and dreams
G Cm Am
I donīt have anything since
D
I donīt have you
G Cm D
And I don't have fond desires and
G Cm D
I donīt have happy hours
G Cm Am
I don't have anything since
D
I don't, I don't have you
D
I don't have happiness and
Am G
I guess I never will again
Am G
When you were not on me, in walked on misery
Am D
And it's been here since then
yeah
(G Cm Am D)
Yeah you're fall
G Cm
I don't have letters, yeah
D
And I don't have one who cares
G Cm Am
I don't have anything since
D
I don't have you
(G Em Am D)
You, you, oh oh oh

_________________________________________________________________________

Mama Kin (Aerosmith)
Guns N' Roses
Live like a suicide

Intro
|-----------|------------------------------------------------------|
|-----------|------------------------------------------------------|
|--x--x--x--|---9--9--9--9--9--------------------------------------|
|--x--x--x--|---9--9--9--9--9----9--9--9--9--9----7--7--7--7--7----|
|--x--x--x--|---7--7--7--7--7----9--9--9--9--9----7--7--7--7--7----|
|-----------|--------------------7--7--7--7--7----5--5--5--5--5----|
For the verses you play:
|-------------------------------------------------|
|-------------------------------------------------|
|-------------------------------------------------|
|--2-2--4--2-2---5-4--2-2-4-2-2-------------------|
|--2-2--4--2-2---5-4--2-2-4-2-2-------------------|
|-------------------------------------------------|
Chorus Keepin' touch with mama kin...
|---------------|-----------------------------------|
|---------------|-----------------------------------|
|---------------|---------------------------9-------|
|-----2--2--2---|---------------------9--9--9-------|
|-----2--2--2---|---------------------9--9--7-------|
|-----0--0--0---|---------------------7--7----------|
Chords:
First verse:
E5 B5. A5 E5.
it ain't easy livin' like a gypsy tell ya honey how it feels
E5 B5 A5 E5
i've been dreaming floatin' down stream and losin' touch with all that's real
B5 A5 E
whole lotta lover keepin' under cover never knowin' where you been
E5 B5 A5
oo yeah you've been fadin' always out paradin' keep in touch with mama
E F#5 G5 G#5 A5 E5 A5
kin you always got your tail on the wag spittin' fire from your
E5 F#5 G5 G#5 A5 E5
mouth just like a drag - on you act like a perpetual drag
F#5
you better check it out cause someday soon you'll have to climb back on the
B5
wag - on.
Guitar solo:
|-17--------17--------17--------17-17--------17--------17--------17--------17-------
|----20p17-----20p17-----20p17--------20p17-----20p17-----20p17-----20p17-----20p17-
|-----------------------------------------------------------------------------------
|------------------------------------------------------------------------------------
|------------------------------------------------------------------------------------
|------------------------------------------------------------------------------------
|------------------------------------------------------------------------------17----20~~~|
|-17h20p17----17h20p17----17h20p17----17------------------------------------17----17-19~~~|
|----------20----------20----------20----20p19-17----19p17h18-19-17h18-17h18--------------|
|-------------------------------------------------19--------------------------------------|
|-----------------------------------------------------------------------------------------|
|-----------------------------------------------------------------------------------------|
Chords used : E5 => X799XX B5 => 799XXX F#5 => 244XXX G5 => 355XXX G#5 => 466XXX


___________________________________________________________________


Sympathy for the Devil
By Rolling Stones

Tuned down 1/2 step to Eb
Drums, Bongas, Axl's Ooooah's etc....
Please allow me to intro- -duce myself
||-------------------------|-------------------------------------|--------------
||-------------------------|-------------------------------------|--------------
||*---------9-----9-----9--|----------------------7-----7-----7--|--------------
||*--9---9--9--9--9--9--9--|------9--9------7--7--7--7--7--7--7--|--------------
||---7---7-----7-----7-----|------7--7------5--5-----5-----5-----|--------------
||-------------------------|-------------------------------------|--------------

I'm a man with wealth and taste
------------------------------------------------------------------------||------
------------------------------------------------------------------------||------
--------------------------------------------------------9-----9-----9--*||------
-7--7---------------7--7-----7--7------------7-9--9--9--9--9--9--9--9--*||------
-5--5--7--7--7------5--5-----5--5-----x--x---5/7--7--7-----7-----7------||------
-------5--5--5----------------------------------------------------------||------

oooah Pleased to meet you hope you guessed my name
----------------------------------------------------------------|---------------
----------------------------------------------------------------|---------------
----------------------------------------------------------------|---------------
---------4---------------------9--9-4---------------------------|--7-9--9--9----
-/-------2---------------------7--7/2---------------------------|--5/7--7--7----
----------------------------------------------------------------|---------------
(long slide)
But what's puzzling you is the
-----------------------------------------|--------------------------------------
-----------------------------------------|--------------------------------------
9-----9-----9-------------9-----9-----9--|--------------------------------------
9--9--9--9--9--7-9--9--9--9--9--9--9--9--|------------4--------9--9-4-----------
---7-----7-----5/7--7--7-----7-----7-----|------------2--------7--7/2-----------
-----------------------------------------|--------------------------------------

nature of my game.
-----------------------------------------------|--------------------------------
-----------------------------------------------|--------------------------------
---------------------------9-----9-------------|--------------------------------
----------------7-9--9--9--9--9--9--9-----9-4--|--------------------------------
----------------5/7--7--7-----7-----7--x--72--|--------------------------------
-----------------------------------------------|--------------------------------


_____________________________________________________________________

Knockin' On Heavens Door GN'R version
By Bob Dylan


G5 D C
-3---3--------------2-0-------|-----------------0--------------------|--------
-3-----3---3------3-----3---3-|----------1--------------1------------|--------
-0-------0------2---------2---|-0------0---0----------0---0-0------0-|--------
-0------------0---------------|-0-2----------2------2-------0-2------|--------
------------------------------|--H---3-----------------------H---3---|--------
-3----------------------------|--------------------------------------|--------
This is the picking for the first line. Again, the picking will vary
throughout the song.
G5 D Am
-3--------------2-------2-0-------|-0-----H-------0----------------------|
-3---3-------3--3-------3-------0-|-1----0-1-------------1---------------|
-0---0-----0----2----2-------2----|-2--2-----2---------2---2------0---0--|
-0---0-----0----0----0------------|-2----------2-----2-------0-2----2----|
----------------------------------|-0-------------------------H----------|
-3--------------------------------|--------------------------------------|
Song goes like this:
Intro:
Twice with picking G5 D C
Twice just power chords G5 D C
Verse 1 (with picking)
G5 D Am
Mamma take this badge from me
G5 D C
I can't use it anymore
G5 D Am
It's getting dark, too dark to see
G5 D C
Feels like I'm knockin' on heaven's door
Chorus (if you're really concerned about playing it like the
CD, listen to it for rhythm. But this song has been done by so
many people so differently that you might as well give it your own
feel.)
G5 D5 C5
Knock, knock, knockin' on heaven's door,
C5
Hey, hey, hey, hey, yeah
G5 D5 C5
Knock, knock, knockin' on heaven's door,
C5
(no lyrics)
G5 D5 C5
Ooh, knock, knock, knockin' on heaven's door
C5
Ooh yeah
G5 D5 C5
Knock, knock, knockin' on heaven's door
C5
Hey, hey, hey, hey, yeah
First Guitar Solo
G D C
------------------------------------------------------
----^^---P---------15--^------~~~~~~~~~~~~------------
-12-14-14-12-14-------14-12-12-------------------12---
------------------------------------------13/14-------
------------------------------------------------------
------------------------------------------------------
G D C
---------------P------------P--------P------------------15----
15/17---15---13-12-13/15--13-12---13--12----------12-13----13-
-------------------------------------------~~~~~~~------------
-----------------------------------------14-------------------
--------------------------------------------------------------
--------------------------------------------------------------
G ^^ D ^^ ^^ C
--~~~-------15-17--17--17--17--15-----------------------------
12---15/17----------------------------------------------------
--------------------------------------------------------------
--------------------------------------------------------------
--------------------------------------------------------------
--------------------------------------------------------------
G ^^ ^^ D C
--20-20-19-20--19-20--20-20-20---~~~~~----------------------------------
-------P-----------------------17------^^----^^-------------------------
---------------------------------------19-19-19-19-^-----^--------------
---------------------------------------------------19-19-19-19----------
---------------------------------------------------------------17--17---
------------------------------------------------------------------------
Additional lyrics:
Mama, put my guns in the ground
I can't shoot them anymore
That cold black cloud is comin' down
Feels like I'm knockin' on heaven's door
Basically there are lots of "knockin' on heaven's door"s throughout the rest
Date: Saturday, 8 March
From: David Harrison
This is one of GUNS N' ROSES best song if you ask me.
I saw that no one had tabbed the second solo so I did as
well as the rest of the song. If you have any questions,
Comments, additions, or Corrections feel free to e-mail
them to me.
P.S. Tune your guitar down half a step.
Riff 1:-used in intro and the verses.
E|--3----3----------0---------------0--------------|
B|--3-----3-3--3---3-3-----------1---1--1----------|
G|--0------0---2--2---2-----------0---0--0------0--|
D|--X----------0-------0--0h2-2----2-------0h2-2---|
A|--2---------------------0h3--------------0h3-----|
E|--3----------------------------------------------|
E|-------3-----------0-----------------------||
B|--------3-3-------3-3------1----1--1-1-----||
G|--0------0---0h2-2---2-------0---0--0-0----||
D|--x----------0--------0---2---2---2----2---||
A|--2---------------------3------3--------3--||
E|--3----------------------------------------||
Riff 2:-used in intro and the choruses.
G D C C
E|-----|-----|-----|-----|
B|-----|-----|-----|-----|
G|--4--|--7--|--5--|--5--|
D|--5--|--7--|--5--|--5--|
A|--5--|--5--|--3--|--3--|
E|--3--|-----|-----|-----|
Solo 1:
E|-------------------------------------------------------|
B|-----------------15-------------------------15/17--15--|
G|--12-14brp12-14-----14br-1212~~~---------12------------|
D|--------------------------------------/14--------------|
A|-------------------------------------------------------|
E|-------------------------------------------------------|
E|----------------------------------------15----------15-|
B|-13p12-13/15---13p12-13---12--------1213--1312---/17---|
G|-------------------------------------------------------|
D|----------------------------14-------------------------|
A|-------------------------------------------------------|
E|-------------------------------------------------------|
E|-17br17---17br17br15-------22--20192019-22--20-2020----|
B|---------------------------------------------------17--|
G|-------------------------------------------------------|
D|-------------------------------------------------------|
A|-------------------------------------------------------|
E|-------------------------------------------------------|
E|--------------------15--||
B|--15brbr----------------||
G|----------14brbr--12----||
D|------------------------||
A|------------------------||
E|------------------------||
Solo 2:
E|-------------------------------------------------------|
B|--19b~~~~~~~r-19---19brp17-19-1717----20-17--20-17br---|
G|-------------------------------------------------------|
D|-------------------------------------------------------|
A|-------------------------------------------------------|
E|-------------------------------------------------------|
E|----------------------------------------16---18b-18p16-|
B|-1517--1517--------1517---------------13--16-----------|
G|-----------------------------------/13-----------------|
D|-----17----19br1719----19br19br17----------------------|
A|-------------------------------------------------------|
E|-------------------------------------------------------|
E|-1618P161620192022b--20192022b--20192022b-22b22b-------|
B|------------------------------------------------2022b--|
G|-------------------------------------------------------|
D|-------------------------------------------------------|
A|-------------------------------------------------------|
E|-------------------------------------------------------|
E|-------------------------------------------------------|
B|--2022br-202222b-202220--20~~---2019----19br-17191717--|
G|-------------------------------------------------------|
D|-------------------------------------------------------|
A|-------------------------------------------------------|
E|-------------------------------------------------------|
E|-------------------------------------------------------|
B|-2017--17~~15~~12~~~~~~--------------------------------|
G|------------------------12~--11~---11br-9~---7---5/4---|
D|----------------------------------------------------5--|
A|-------------------------------------------------------|
E|-------------------------------------------------------|
Here's The Order:
RIFF 1 (00:00) 1X
RIFF 2 (OO:15) 2X
RIFF 1 (OO:30) 2X
RIFF 2 (00:59) 4X
SOLO 1 (O1:29) 1X
RIFF 1 (01:59) 2X
RIFF 2 (02:27) 4X-play all the way through the solo until 3:54
SOLO 2 (02:56) 1X
RIFF 2 (04:51) 4x


Get this song at amazon.com      Ebay     Ringtones Ringtones  


Learn to play: Songwriting, Piano, Harmonica, Guitar
More Guns 'N' Roses lyrics available at Muzikum

Related Guns N Roses Tabs

Appetite For Destruction Album tabs
Godfather Theme tabs
Gnr Lies Album tabs
Big Dumb Sex tabs
Whole Lotta Rosie tabs
Mr Brownstone tabs
Paradise City Guitar tabs
Knocking On Heavens Door Live tabs
Paradise City Solo tabs
Out Ta Get Me Intro tabs
Rocket Queen Solo tabs
So Fine tabs
Slash Licks tabs
Oh My God Bass tabs
Patience tabs
Youre Crazy tabs
Big Bad Billy tabs
Mama Kin tabs
Buick Makane tabs
Pretty Tied Up tabs


Guitar Tabs









All tabs are property and copyright of their owners. All tabs provided for educational purposes only. Privacy Policy, DMCA

Online converter - videoconverter.com