Guns N Roses

Chi Tabs



More from Guns N Roses

Guns N Roses Tabs
Guns N Roses Chords
Guns N Roses Bass
Guns N Roses Lyrics




h My God (3:42)
1.-Intro:
Guitar 1:
1.-----------------------------------|-------------------------------------||
2.-----------------------------------|-------------------------------------||
3.-----------------2-------4---------|----------------2-------4------------||
4.--------4------3---3---5---5-/3-5--|-------4------3---3---5---5----------||
5.------5---5--3-------5-------------|-----5---5--3-------5-------/5-7-----||
6.----0------------------------------|---0---------------------------------||

(bass line for guitar):
1.-----------------------------------|-------------------------------------||
2.-----------------------------------|-------------------------------------||
3.-----------------------------------|-------------------------------------||
4.-----------------------------/3-5~-|-----------------------------/5-7~---||
5.-----/5~-3~-------/5--3~-----------|----/5~-3~--------5~--3~-------------||
6.---0--------0~-0~--------0~--------|--0--------0~-0~----------0~---------||

Guitar 2:
1.--------|-------|------------------|-------------------------------------||
2.--------|-------|-20~~--19~~-------|---------20-----------20~~--19~-/20--||
3.---2----|-------|-------------18~~-|-(18)-------18----18-----------------||
4.---2----|-------|------------------|---------------17--------------------||
5.---0----|-------|------------------|------19-----------------------------||
6.--------|-------|------------------|-------------------------------------||
Let Ring (with wah-wah) FULL

2.-Verse:
1.-----------------------------|------------------------------||
2.-----------------------------|------------------------------||
3.-------4---5-5-5-5-5-5-5-5-5-|-------4---5---4/5---4--------||
4.---4---4---5-----------------|---4---4---5---4/5---4---5----||
5.---4---2---3-----------------|---4---2---3---2/3---2---5----||
6.---2-------------------------|---2---------------------3----||
harmonics…………………
“It’s not how you’re thinking…”

1.------------------------------|-----------------------------|
2.------------------------------|-----------------------------|
3.------------------------------|----------------5---4--------|
4.-------2------2------2------2-|-----2------2---5---4---5----|
5.---0-0----0-0----0-0----0-0---|-0-0----0-0-----3---2---5----|
6.------------------------------|------------------------3----|
pm ... ... ... ... ... ...
“Believe you are in favor and drain out your soul…”

1.------------------------------|------------------------------|
2.------------------------------|------------------------------|
3.-------4---5-5-5-5-5-5-5-5-5--|-------4---5---4/5---4--------|
4.---4---4---5------------------|---4---4---5---4/5---4---5----|
5.---4---2---3------------------|---4---2---3---2/3---2---5----|
6.---2---2---3------------------|---2---2---3---2/3---2---3----|
harmonics........
“What can I do when there’s so many liars…”

3.-Pre-chorus:
1.-----------------------|----------------------|--------------------------|
2.-------------5~--------|-----------5~---------|--------5-5-5-5-5-5-5-5---|
3.-----------------------|----------------------|--------------------------|
4.----4---4--------------|--4---4---------------|--4---4-------------------|
5.----4---4--------------|--4---4---------------|--4---4-------------------|
6.----2---2--------------|--2---2---------------|--2---2-------------------|
Harmonics Harmonics Tremolo
“Watch out! Gotcha!”

4.-Chorus:
1.--------------------------|----------------------|------------------------|
2.--------------------------|----------------------|------------------------|
3.--------------------------|----------------------|------------------------|
4.---------5--4--------5--4-|--------5--4-----5--4-|--------5--4-------5--4-|
5.---------5--4--------5--4-|--------5--4-----5--4-|--------5--4-------5--4-|
6.---2--2--------2--2-------|--2--2--------2-------|--2--2--------2--2------|
all with wah/wah
“Oh My God, I can’t deny this…”

1.-----------------------|-------------------------|-----------------------|
2.-----------------------|-------------------------|-----------------------|
3.-----------------------|-------------------------|-----------------------|
4.---------5--4-----5--4-|--------5--4--------5--4-|--------5--4------5--4-|
5.---------5--4-----5--4-|--------5--4--------5--4-|--------5--4------5--4-|
6.---2--2--------2-------|--2--2--------2--2-------|--2--2--------2--------|
“Don’t bury it deeper where nobody can find it…”

1.--------------------------|----------------------|------------------|
2.--------------------------|----------------------|------------------|
3.--------------------------|----------------------|---------14-(14)--|
4.---------5--4--------5--4-|--------5--4-----5--4-|--4--4---14-(14)--|
5.---------5--4--------5--4-|--------5--4-----5--4-|--4--4---12-(12)--|
6.---2--2--------2--2-------|--2--2--------2-------|--2--2------------|
“like nobody wanted to know…” wha-wha off.

Repeat Verse
Repeat Bridge
Repeat Chorus

5.-Post Chorus:
Guitar 1:
1.--------14----------14----------14----------14----------14----------14---|
2.-----12----12----12----12----12----12----12----12----12----12----12------|
3.--14----------14----------14----------14----------13----------13---------|
4.-------------------------------------------------------------------------|
5.-------------------------------------------------------------------------|
6.-------------------------------------------------------------------------|

1.----------14-------------14----------14----------14----------14----------||
2.-12----12----12-------12----12----12----12----12----12----12----12-------||
3.----13----------13-14----------14----------14----------14----------13-11-||
4.-------------------------------------------------------------------------||
5.-------------------------------------------------------------------------||
6.-------------------------------------------------------------------------||

Guitar 2:
1.-------------------------------------------------------------------|
2.-------------------------------------------------------------------|
3.------------------------------------------------------2--2-----2---|
4.--4--4-----4-----4-----4-----4-----4-----4-----4------2--2-----2---|
5.--4--4-----4-----4-----4-----4-----4-----4-----4------0--0-----0---|
6.--2--2--0--2-----2--0--2-----2--0--2-----2--0--2------------3------|

1.-------------------------------------------------------------------------|
2.-------------------------------------------------------------------------|
3.--2-----2-----2-----2-----2-----2------4--4-----4-----4-----4----(4)--4--|
4.--2-----2-----2-----2-----2-----2------4--4-----4-----4-----4----(4)--4--|
5.--0-----0-----0-----0-----0-----0------2--2--0--2-----2--0--2----(2)--2--|
6.-----3-----------3-----------3-------------------------------------------|

1.-------------------------------------------------------------------------||
2.-------------------------------------------------------------------------||
3.-----4-----5-------------------------------------------------------x-x-2-||
4.-----4-----5-----4--4-----4------4-----4------4-----4------4-----4-x-x-2-||
5.--0--2-----3-----4--4-----4------4-----4------4-----4------4-----4-x-x-0-||
6.-----------------2--2--0--2------2--0--2------2--0--2------2--0--2-------||
Hold.

6.-Solo:
1.-------------------------------------------------------------------------|
2.--20--------19-----------------------------------------------------------|
3.-----------------18----18-(18)-(18)-(18)--18-(18)-(18)-(18)--18----------|
4.-------------------------------------------------------------------------|
5.-------------------------------------------------------------------------|
6.-------------------------------------------------------------------------|

Guitar 2:
1.-------------------------------------------------------------------------|
2.------------------------------------------8----8----8----8---------------|
3.-(2)---------------------9----------------9----9----9----9---------------|
4.-(2)---------------------------------------------------------------------|
5.-(0)---------------------------------------------------------------------|
6.-------------------------------------------------------------------------|


1.------12p10--15----------10----------------------------------------|
2.--13-------------13--12----------10--------------------------------|
3.----------------------------12------11--12--11^--11^--(11)9--11---|
4.-------------------------------------------------------------------|
5.-------------------------------------------------------------------|
6.-------------------------------------------------------------------|

1.-------------------------------------------------------------------------||
2.-------------------------------------------------------------------------||
3.-9h11p97--9--7h9p75---4^--(4)--(4)--/9--9--11-12--11-14--11-12---------||
4.---------------------------------------x--x--x--x---x--x---x--x---12--10-||
5.--------------------------------------/7--7--9--10--9--12--9--10--x---x--||
6.------------------------------------------------------------------10--8--||


Guitar 3:
1.--------------------------------------------------------------------|
2.--------------------------------------------------------------------|
3.--------------------------------------------------------------------|
4.---------------------------------------------------------2----------|
5.-----------/5----7----0----------4-----------------3-----------3----|
6.---------------------------5-----------5-----3----------------------|


1.-------------------------------------------------------------------------||
2.-------------------------------------------------------------------------||
3.-------------------------------------------------------------------------||
4.--------4------------------------------------2--------------4------------||
5.-----5-----5--/3---5---0-----4-----------3-------3-------5-----5--/5--7--||
6.--5-----------------------5------5---3---------------5-------------------||


7.-Verse during Solo:
Guitar 1:
1.--17^-----(17)p14---------------------------------------------------------|
2.-------------------17---17p14---17p14h17p14-------------------------------|
3.---------------------------------------------16^--14--14^--------16^--14^-|
4.-----------------------------------------------------------16p14----------|
5.--------------------------------------------------------------------------|
6.--------------------------------------------------------------------------|


1.-----------------------------------------------------14-99999-12-99999-10-|
2.--------------------------------------------------------------------------|
3.-----------------4^^^^^---------------------------------------------------|
4.--16--16--14h16----------3--4--4^--(4)-4^^^^^--(4)-----------------------|
5.--------------------------------------------------------------------------|
6.--------------------------------------------------------------------------|
“whoaaaaaaaaaaaaaa…”

1.--99999-12-99999-10-99999-12-99999-14-99999--||
2.---------------------------------------------||
3.---------------------------------------------||
4.---------------------------------------------||
5.---------------------------------------------||
6.---------------------------------------------||
more “Whoaaaaaaaaaaa…”
Guitar 2:
1.------------------------------------------------------||
2.------------------------------------------------------||
3.------------------------------------------------------||
4.---4-------4-------4-------4-------4-------4-------4--||
5.---4-------4-------4-------4-------4-------4-------4--||
6.---2-------2-------2-------2-------2-------2-------2--||


8.-Interlude:

Guitar 1:
1.--14/16--16---16---16---|-16/18---18---18--18--(18)--18---18--18--18--18-|
2.------------------------|------------------------------------------------|
3.------------------------|------------------------------------------------|
4.------------------------|------------------------------------------------|
5.------------------------|------------------------------------------------|
6.------------------------|------------------------------------------------|


Guitar 2:
1.--------------|----------------------------------------------------------|
2.--------------|------------------------------14--13----------------------|
3.------13--13--|--13/15------15-----(15)/13----------13------------------|
4.--11----------|---------13-------------------------------13--(13)/11h13-|
5.--------------|----------------------------------------------------------|
6.--------------|----------------------------------------------------------|



1.---------------------------13--||
2.--13^---(13)--11--13--11---13--||
3.--13^---(13)--11--13--11---13--||
4.-------------------------------||
5.-------------------------------||
6.-------------------------------||


9.-Closing:

Guitar 1:
1.--------14----------14----------14----------14----------14------14--------|
2.-----12----12----12----12----12----12----12----12----12----12-------13----|
3.--14----------14----------13----------13----------13----------13-------12-|
4.--------------------------------------------------------------------------|
5.--------------------------------------------------------------------------|
6.--------------------------------------------------------------------------|



1.--14--14--14--14--14--14--14--14--14--14--14--14--14--14--14--14--|
2.---x---x---x---x---x---x---x---x---x---x---x---x---x---x---x---x--|
3.--11--11--11--11--11--11--11--11--11--11--11--11--11--11--11--11--|
4.------------------------------------------------------------------|
5.------------------------------------------------------------------|
6.------------------------------------------------------------------|

1.--14--14--14--14--14--14--14--14--14--14--14--14--14--14--14--14--|
2.---x---x---x---x---x---x---x---x---x---x---x---x---x---x---x---x--|
3.--13--13--13--13--13--13--13--13--13--13--13--13--13--13--13--13--|
4.------------------------------------------------------------------|
5.------------------------------------------------------------------|
6.------------------------------------------------------------------|


1.--14--14--14--14--14--14--14--14--14--14--14--14--14--14--14--14---------|
2.---x---x---x---x---x---x---x---x---x---x---x---x---x---x---x---x---------|
3.--14--14--14--14--14--14--14--14--14--14--14--14--14--14--14--14--11-11-|
4.------------------------------------------------------------------11-11-|
5.------------------------------------------------------------------9--9--|
6.-------------------------------------------------------------------------|

Guitar 2:

1.-------------------------------------------------------------------------|
2.-------------------------------------------------------------------------|
3.--2--2--2--2--2--2--2--2--2--2--2--2--2--2--2--2--4--4--4--4--4--4--4--4-|
4.--2--2--2--2--2--2--2--2--2--2--2--2--2--2--2--2--4--4--4--4--4--4--4--4-|
5.--0--0--0--0--0--0--0--0--0--0--0--0--0--0--0--0--2--2--2--2--2--2--2--2-|
6.-------------------------------------------------------------------------|

1.-------------------------------------------------------------------------|
2.-------------------------------------------------------------------------|
3.--4--4--4--4--4--4--4--4--4--4--4--4--4--4--4--4--2--2--2--2--2--2--2--2-|
4.--4--4--4--4--4--4--4--4--4--4--4--4--4--4--4--4--2--2--2--2--2--2--2--2-|
5.--2--2--2--2--2--2--2--2--2--2--2--2--2--2--2--2--0--0--0--0--0--0--0--0-|
6.-------------------------------------------------------------------------|


1.-------------------------------------------------------------------------|
2.-------------------------------------------------------------------------|
3.--2--2--2--2--2--2--2--2-------------------------------------------------|
4.--2--2--2--2--2--2--2--2--5--5--5--5--5--5--5--5--5--5--5--5--5--5--5--5-|
5.--0--0--0--0--0--0--0--0--5--5--5--5--5--5--5--5--5--5--5--5--5--5--5--5-|
6.--------------------------3--3--3--3--3--3--3--3--3--3--3--3--3--3--3--3-|


1.----------||
2.----------||
3.----------||
4.--4--4---||
5.--4--4---||
6.--2--4---||













Chinese Democracy
Tabbed by Phil Gillen.
This is a very early version of the tab.i need soem help with it!

note: There is huge feedback @ the start of the song!

eb:-------------------------------
bb:-------------------------------
gb:-------------------------------
db:-------------------------------
ab;------------5-5---7-7-----8-8-8
eb:-0--0--x-x--3-3-x-5-5-x-x-6-6-6

or

eb:----------------------------
bb:----------------------------
gb:----------------------------
db:----------------------------
ab:----------3-3---5-5----6-6-6
db:-0-0--x-x-3-3-x-5-5-x-x6-6-6

i reckon the drop d is quite accurate but i rushed this so its possibly not.
comments?
email: gmcwookie@aol.com













Madagascar
Tabbed by Lucs
lucs@gunsnroses.ch


Tune Down 1/2 step
With wah-wah

/ slide
^: bend string up + release bend
b: bend string up
r: release bend
h: hammer ofn
p: pull off



While Axl sing : Aaaaaaaaaaaaaaaaaaaaaaaaaaaaaaaaaaaaaaah!


E-------------9^--7-------------9^--7-------------9^--5-------------9^--7--------------------------------------------------
B------------------------------------------------------------------------------------------------------------------------------
G------------------------------------------------------------------------------------------------------------------------------
D------------------------------------------------------------------------------------------------------------------------------
A------------------------------------------------------------------------------------------------------------------------------
E------------------------------------------------------------------------------------------------------------------------------



[Guitar Solo (BucketHead + Finck)]:


BucketHead:

E------------------------------------------------------------------------------------------------------------------------------
B------------------------------------------------------------------------------------------------------------------------------
G------------------------------------------------------------------------------------------------------------------------------
D------------------------------------------------------------------------------------------------------------------------------
A---5^^^^^^^---------------------------------7^^^^^^^---------------------------------3^^^^^^--------------------------
E------------------------------------------------------------------------------------------------------------------------------



E------------------------------------------------------------------------------------------------------------------------------
B------------------------------------------------------------------------------------------------------------------------------
G------------------------------------------------------------------------------------------------------------------------------
D------------------------------------------------------------------------------------------------------------------------------
A---5^^^^^^^--------------------------10 / 7^^^^^^^---------------------------------7 / 5 / 7^^^^^^----------------------
E------------------------------------------------------------------------------------------------------------------------------



E------------------------------------------------------------------------------------------------------------------------------
B------------------------------------------------------------------------------------------------------------------------------
G-----------------------9--------9b(9) p7/6/7-------7/6/7-----------------------------------------------------------------
D----7b---7---------------------------------------------------7--------------5---7---------5---------5/--------------------
A------------------------------------------------------------------------------------------------------------------------------
E------------------------------------------------------------------------------------------------------------------------------



E----------------------------------------------------------------------------------------------------------------------------------------
B-----------------------------------------------------------------------------------------------------------------------------10-12----
G-----------------14-------14/12-----------------------------------------------10-12------------------------------10-12-------------
D-----14---17------------------------14---12-----10-12------------10-12-------------10-12------------10-12-----------------------
A-------------------------------------------------------------10-12---------------------------------10-12-----------------------------
E----------------------------------------------------------------------------------------------------------------------------------------



E------------12b--12b----12b----12^---10/9----10---------------------------------------------------------------------------------------------------------------------------------
B-----10-----------------------------------------------10----11^h10p11--10------------------------------------------------------------------10--12------------10--12/17--------
G----------------------------------------------------------------------------------12-10-----------------------------10-12----------10--12------------10--12---------------------
D-----------------------------------------------------------------------------------------12--10------------10--12---------10--12--------------------------------------------------
A---------------------------------------------------------------------------------------------------10--12---------------------------------------------------------------------------
E--------------------------------------------------------------------------------------------------------------------------------------------------------------------------------------



E-----10----12/13/12----10---12------12^---10/9/10--10-----------------------------------------------------------------------------13--15-----13--12--10-----------------
B------------------------------------------------------------10----------------------------------------------------------------13--15-------------------------------------------
G-------------------------------------------------------------------12--10----12--14------12--14--------12--14---13--15----------------------------------------------------
D---------------------------------------------------------------------------------------15-----------15--------------------------------------------------------------------------
A---------------------------------------------------------------------------------------------------------------------------------------------------------------------------------
E---------------------------------------------------------------------------------------------------------------------------------------------------------------------------------


Finck:

E-------------18-------18-------18-------18-------18-------18-------18--------------------------------------------------
B----------------18--------19-------18-------19--------18-------19-------18--16--14--11-------------------------------
G---------------------------------------------------------------------------------------------------------------------------
D---------------------------------------------------------------------------------------------------------------------------
A---------------------------------------------------------------------------------------------------------------------------
E---------------------------------------------------------------------------------------------------------------------------













The Blues
Tabbed By: MrFace

After failing to find a single tab on this song, i decided to set about it myself
and produce
one that i could play and that i could tab. So here's my shot, not perfect,
but close enough
to
have fun with.

Fill 1:

E:--------7b----------------7b-----------------------------------------------------------------
B:-------------6--7--------------6--7--------------3h5-3---------------------------------------
G:--------------------------------------------------------0------------------------------------
D:---------------------------------------------------------------------------------------------
A:---------------------------------------------------------------------------------------------
E:---------------------------------------------------------------------------------------------
This is the little lead part over the intro chords
Fill 2:

E:---------0-2-0----4---2-------2---------1--3-------------------------------------------------
B:--------------------------4--------------------2b----0---------------------------------------
G:---------------------------------------------------------------------------------------------
D:---------------------------------------------------------------------------------------------
A:---------------------------------------------------------------------------------------------
E:---------------------------------------------------------------------------------------------
This comes after the solo

Verse:
G Am A
E:------------------3--------------------0-----------------0-----------------------------------
B:------------------0--------------------1-----------------2-----------------------------------
G:------------------0--------------------2-----------------2-----------------------------------
D:------------------0--------------------2-----------------2-----------------------------------
A:------------------x--------------------x-----------------x-----------------------------------
E:------------------x--------------------x-----------------x-----------------------------------

"So now i'm wanderin' away...... Tryin' to find my way..."

G Am A
E:-----------3-------------------------------------0--------------0----------------------------
B:-----------0-------------------------------------1--------------2----------------------------
G:-----------0-------------------------------------2--------------2----------------------------
D:-----------0-------------------------------------2--------------2----------------------------
A:-----------x-------------------------------------x--------------x----------------------------
E:-----------x-------------------------------------x--------------x----------------------------

"Keep the feelings that i felt.. I save 'em for you and no one else"

G Am A
E:------------3----------------0---------------------0-----------------------------------------
B:------------0----------------1---------------------2-----------------------------------------
G:------------0----------------2---------------------2-----------------------------------------
D:------------0----------------2---------------------2-----------------------------------------
A:------------x----------------x---------------------x-----------------------------------------
E:------------x----------------x---------------------x-----------------------------------------

*Dunno lyrics to this bit.. Axl gabbles it a bit.. Same as first part*

C D G
E:-------------0----------------------2--------------------------------------------3-----------
B:-------------1----------------------3--------------------------------------------0-----------
G:-------------0----------------------2--------------------------------------------0-----------
D:-------------2----------------------x--------------------------------------------0-----------
A:-------------x----------------------x--------------------------------------------x-----------
E:-------------x----------------------x--------------------------------------------x-----------

"That's not scarlet on my feet, A change that's bitter sweet, That's Called
the Blues"

Fill 1:

E:--------7b-----------------------7b----------------------------------------------------------
B:-------------6--7---(h8)--------------6--7---------------------------------------------------
G:---------------------------------------------------------------------------------------------
D:---------------------------------------------------------------------------------------------
A:---------------------------------------------------------------------------------------------
E:---------------------------------------------------------------------------------------------

Rhythm Fill:

E:--------5-------7--7--------8----------------------------------------------------------------
B:--------5-------7--7--------8----------------------------------------------------------------
G:--------5-------7--7--------8----------------------------------------------------------------
D:--------7-------9--9-------10----------------------------------------------------------------
A:--------7-------9--9-------10----------------------------------------------------------------
E:--------5-------7--7--------8----------------------------------------------------------------

Fill 2:

E:----------------------------------------------0-2-0----4-----2-----2-------------------------
B:----------------------------------------------------------------4----------------------------
G:---------------------------------------------------------------------------------------------
D:---------------------------------------------------------------------------------------------
A:---------------------------------------------------------------------------------------------
E:---------------------------------------------------------------------------------------------

"I don't know what i just said dooo...

E:----------------------------------------0-2-0----4-----2-------2-----------------------------
B:-----------------------------------------------------------4---------------------------------
G:---------------------------------------------------------------------------------------------
D:---------------------------------------------------------------------------------------------
A:---------------------------------------------------------------------------------------------
E:---------------------------------------------------------------------------------------------

"Everywhere i go i see yooouuu...

Solo:

Here goes!!

E:-----10/12---10----8/10---8-----8-6-8---8-6-8-6----------------------------------------------
B:-------------------------------------------------8---8/11----11b--11b--9h8----11-10-8--------
G:---------------------------------------------------------------------------------------10----
D:---------------------------------------------------------------------------------------------
A:---------------------------------------------------------------------------------------------
E:---------------------------------------------------------------------------------------------

E:------------------------------------------------10--12-12b-10h12b--10------------------------
B:------------4/6-6--9--7----5--6-7--10-8----9h11----------------------------------------------
G:---------------------------------------------------------------------------------------------
D:---------------------------------------------------------------------------------------------
A:---------------------------------------------------------------------------------------------
E:---------------------------------------------------------------------------------------------


E:----------8/10--8~~-8-7--------------------------------8/11--10h8-------11/13-10h8-----11/15-
B:------------------------8---8/11--10h8-7--------------------------9----------------9---------
G:------------------------------------------9h10h9~~-------------------------------------------
D:---------------------------------------------------------------------------------------------
A:---------------------------------------------------------------------------------------------
E:---------------------------------------------------------------------------------------------

E:-------13h15p13-----------------------------16/20---21fb-----20p18h20s21---------------------
B:---------------15p13-------------13h15-----------------------------------21------------------
G:--------------------15p13--13h15-------------------------------------------------------------
D:---------------------------------------------------------------------------------------------
A:---------------------------------------------------------------------------------------------
E:---------------------------------------------------------------------------------------------

E:-------17s19-21--19-17---15---15h16s18-------------------------------------------------------
B:---------------------------------------------------------------------------------------------
G:---------------------------------------------------------------------------------------------
D:---------------------------------------------13-15-16-13--12--14--12---10-12-----------------
A:------------------------------------------------------------------------------14~~~/16~~~~---
E:---------------------------------------------------------------------------------------------

E:---------11h13p11---------------------11-11-----------15s17-14-------------------------------
B:-----------------13p11--------11h13-----------13-11------------------------------------------
G:----------------------13p11h13---------------------------------14-/15------------------------
D:---------------------------------------------------------------------------------------------
A:---------------------------------------------------------------------------------------------
E:---------------------------------------------------------------------------------------------

It ain't perfect, especially the fast bits, but i think it's a good attempt
at it. I think
Finck
(no pun intended) is, along with Buckethead, one of the most under-rated
guitarists
around today,
this solo helps make me think (again, no pun intended) that.

Fill 3:

E:-------------------5---------
B:----------4~~h6h4------------
G:-----------------------------
D:-----------------------------
A:-----------------------------
E:-----------------------------

Outro:

This is the bit after the Piano interlude. It carries into the "Ooooh oh oooooh
oh oh,
woh baby"
part.

G G D D A
E:---------3---3--------2-2--------0----------------0-2-0--4--2---2----------------------------
B:---------0---0--------3-3--------2----------------------------4------------------------------
G:---------0---0--------2-3--------2-----------------------------------------------------------
D:---------0---0--------x-x--------2-----------------------------------------------------------
A:---------2---2--------x-x--------x-----------------------------------------------------------
E:---------3---3--------x-x--------x-----------------------------------------------------------

"Ooooooooooh Ooooooooh Oh.... Woh Baby"

The song ends on a G.


And that's called The Blues...



Comments: ryan.lowe@ntlworld.com
MSN: face123@homestead.com
AIM: CrazyRetardFace

Date: 30.10.01













Rhiad & The Bedouins
Tab: Igor_Pekker
Venue: House_Of_Blues



(sounds like robin playing)
p h p h
e|--2-0-2-0-2----x-x--|


main riff for axls "whuuoooows"
e|----------------------------------------------------------------------------|
B|----------------------------------------------------------------------------|
G|----------------------------------------------------------------------------|
D|------------2h4-2-h4------------------------------2h4--2--2-4-4-2---4---2---|
A|--4-4-4-4-4----------4-4-4-4-4--7-xx-7--4-4-4-4-4---------2-4-4-2-5-4-5-2---|
E|--2-2-5-2-2----------2-2-5-2-2--5-xx-5--2-2-5-2-2---------------------------|

during verse, theres slide instead of hammer on the d-string,
at end of verse theres some faster lead bit which (probably) buckethead plays

post-verse
lead & rhythm are squished into the following 2 tab lines.
the lead differs a little bit when they play the second "post-verse"
not hard to work out for yourself, but i couldnt be fucked

b1/2 b12
e|----------------------------------6----------------------------
B|-----------7-6~--------------7-6---6-h8p6h8-p6-8-8~--p6--/1----
G|--8--8-8------------5--5-5-5-----------------------------------
D|--8--8-8------------5--5-5-5-----------------------------------
A|--6--6-6------------3--3-3-3-----------------------------------
E|---------------------------------------------------------------


e|----------------------------------------------------------------|-------|
B|----------7-6~-b7----------------------------------------------|-------|
G|--8--8-8-----------7~--/5-7~---------------5~--3~----35h8p5--|--5----|
D|--8--8-8---------------------5--5-5-5-5-5-5--5--5-5-------------|--5-4--|
A|--6--6-6---------------------5--5-5-5-5-5-5--3--3-3-5--5-5-5-5--|--3-4--|
E|-----------------------------3--3-3-3-3-3-3---------3--3-3-3-3--|----2--|


main riff played with mimicing lead
b1/4
e|----------------------------------------------------------------------------------
B|----------------------------------------------------------------------------------
G|--7--8--8--8--8-8-----------------------------------------------------------------
D|--7--8--8--8--8-8--4-4-7--4-4-7-4~-----4-4-7-4-h7~----4-4-7-4-4-7-4~----4-4-7-4-2-
A|--5--6--6--6--6-6-----------------------------------------------------------------
E|----------------------------------------------------------------------------------
at end of riff, to lead into verse rhythm they play
-------------|
--X-5-x-6----|
--X-4-x-5----| this is from now on played at end of each riff of the verse
--X-2-x-3----|
-------------|
-------------|

lead & rhythm packed into one tab line

b.r b1/2
e|--------15~--17-----~~-b19-----
B|----------------------------- solo continues
G|--11------------------------
D|---7----5----3----2-2-2-2----
A|---5----3----1----0-0-0-0----
E|-----------------------------

over solo thythm plays same main riff thing but in G

e|-----------------------------------------------------------------------------
B|-----------------------------------------------------------------------------
G|----------------------------6~-----------------------------------------------
D|--6-6-9-6-6-9-6~----6-6-9-6-6~----6-6-9-6-6-9-6~-----6-6-9-6-4~---6h9p6/4----
A|-----------------------------------------------------------------------------
E|-----------------------------------------------------------------------------

---------------------------------------------------------------------------------
---------------------------------------------------------------------------------
----------------------------4~---------------------------------------------------
--4-4-7-4-4-7-4~----4-4-7-4-----4h7x7----4-4-7-4-4-7-4~---4-4-7-4-4----2h4--2h4--
---------------------------------------------------------------------------------
---------------------------------------------------------------------------------



Get this song at amazon.com      Ebay     Ringtones Ringtones  


Learn to play: Songwriting, Piano, Harmonica, Guitar
More Guns 'N' Roses lyrics available at Muzikum

Related Guns N Roses Tabs

November Rain tabs
Patience 2001 Intro tabs
Blues Solo tabs
Oh My God tabs
Nightrain Intro tabs
Gnr Lies Album tabs
Look At Your Game Girl tabs
Don Damm Me tabs
Reckless Life tabs
Shotgun Blues tabs
You Cant Put Your Arms Around A Memory tabs
Slash Licks tabs
Sweet Child Of Mine Intro tabs
November Rains Solo tabs
November Rain Piano tabs
Use Your Illusion 2 Album tabs
Big Dumb Sex tabs
Heartbreak Hotel tabs
Salt Of The Earth tabs
Use Your Illusion 1 Album tabs


Guitar Tabs









All tabs are property and copyright of their owners. All tabs provided for educational purposes only. Privacy Policy, DMCA