Guns N Roses

Big Bad Billy Tabs



More from Guns N Roses

Guns N Roses Tabs
Guns N Roses Chords
Guns N Roses Bass
Guns N Roses Lyrics



Intro:

|--------------3--3-2p0-------0----0--0-0--0---------------------------------
|---------------------0--75--5----5--5-3--31-1-----/3--31--1-0-1-0--------
|---2-----------------------------------------------------------------2--0-2-
|---2------------------------------------------------------------------------
|---0------------------------------------------------------------------------
|----------------------------------------------------------------------------
|
|---------------------------------------------1-----3------------------------
|-------------8--8--7----7---5----5--5-3--3---1-----3---3-3---3-3-3----------
|-------------9--9--7----7---5----5--5-4--4---2-----0---0-4---5-4-5--2--2-2--
|---7---------7--7--7----7---5----5--5-5--5-3-----3/5---5-5---5-5-5--2--0-2--
|---7-----0---------------------------------------------------------------0--
|---5------------------------------------------------------------------------

First verse:

-----------------------------------------------------------------------------------
-----------------------------------------------------------------------------------
---------2-------2-------2--2--------2---------2---2-----------------2------2----2-
---------2-------2-------2--2--------2---------2---2-----------------2------2----2-
---------0-------0-------0--0--------0---------0---0-----------3b----0------0----0-
-------------3------------------0-3-----------------------0-3----------0-3-----3---

this song is awsome you must learn it and then instant mesange me on aol @ gunsnrosesfan78


Get this song at amazon.com      Ebay     Ringtones Ringtones  


Learn to play: Songwriting, Piano, Harmonica, Guitar
More Guns 'N' Roses lyrics available at Muzikum

Related Guns N Roses Tabs

Live And Let Die tabs
Patience (Acoustic) tabs
Used To Love Her tabs
Word Up tabs
Only Woman Bleed tabs
Bad Obsession tabs
Chi tabs
Get In The Ring tabs
Oh My God Bass tabs
Mr. Brownstone (intro) tabs
My Michelle tabs
Paridise City tabs
Mr. Brownston tabs
Madagascar tabs
G N' R Lies (album) tabs
Paradise City Guitar tabs
I Used To Love Her Solo tabs
Paradise City Outro tabs
Back Off Bitch tabs
Nightrain tabs


Guitar Tabs









All tabs are property and copyright of their owners. All tabs provided for educational purposes only. Privacy Policy, DMCA

Online converter - videoconverter.com