Guns N Roses

Bass Solo Bass Tabs



More from Guns N Roses

Guns N Roses Tabs
Guns N Roses Chords
Guns N Roses Bass
Guns N Roses Lyrics




yea this is pretty awesome
Gb-------11---11--12--14--16--14--1211---14---12---10-9---10--9--------------12-------
Db----12-------------------------------12---10---10-----10------10-------10/12---10/12-
Ab--12------------------------------------------------------------12--10---------------
Eb-------------------------------------------------------------------------------------

Gb---12--11---12--11----------------
Db----------12------12---12-----12-
Ab----------------------------------
Eb----------------------------------



Get this song at amazon.com      Ebay     Ringtones Ringtones  


Learn to play: Songwriting, Piano, Harmonica, Guitar
More Guns 'N' Roses lyrics available at Muzikum

Related Guns N Roses Bass Tabs

Paradise City (easy Version) bass
Youre Crazy bass
Bad Apples bass
Locomotive bass
Right Next Door To Hell bass
November Rain bass
Sweet Child O Mine Solo Played On Bass bass
Guns N Roses Live And Let Die Ver 2 bass
Welcome To The Jungle Bass Tab bass
Civil War bass
Breakdown bass
Live N Let Die bass
Shot Gun Blues And Lyrics bass
Down On The Farm bass
Garden Of Eden (the Normal Version) bass
Think About It bass
Back Off Bitch bass
Pretty Tied Up bass
Get In The Ring bass
Immigrants And Faots bass


Guitar Tabs









All tabs are property and copyright of their owners. All tabs provided for educational purposes only. Privacy Policy, DMCA