Guns N Roses

Bad Apples Bass Tabs



More from Guns N Roses

Guns N Roses Tabs
Guns N Roses Chords
Guns N Roses Bass
Guns N Roses Lyrics



tune down

F#||----------|------------------|------------------|------------------|
C#||----------|------------------|------------------|------------------|
G#||----------|------------------|------------------|------------------|
D#||----------|------------------|------------------|------------------|



------------------|------------------|------------------|------------------|
------------------|------------------|------------------|------------------|
------------------|------------------|------------------|------------------|
------------------|------------------|------------------|------------------|


A5
------------------|------------------|------------------------|
------------------|------------------|------------------------|
------------------|------------------|--0----3b------------0--|
------------------|------------------|------------2--0--3-----|



------------------------|------------------------|------------------------|
------------------------|------------------------|------------------------|
----0--3b---------------|--0----3b------------0--|----0--3b---------------|
------------2--0--3--4--|------------2--0--3-----|------------2--0--3--4--|



------------------------|------------------------|------------------------|
------------------------|------------------------|------------------------|
--0----3b------------0--|----0--3b---------------|--0----3b------------0--|
------------2--0--3-----|------------2--0--3--4--|------------2--0--3-----|


E5
------------------------|-------------------------|------------------------|
------------------------|----------------2--------|----------------2-------|
----0--3b---------------|--------5----4-----------|-------------5-----4----|
------------2--0--3--4--|--0--0-------------3b-0--|----0--3--0-------------|



-------------------------|------------------------|-------------------------|
----------------2--------|----------------2-------|----------------2--------|
--------5----4-----------|-------------5-----4----|--------5----4-----------|
--0--0-------------3b-0--|----0--3--0-------------|--0--0-------------3b-0--|



------------------------|-------------------------|------------------------|
----------------2-------|----------------2--------|----------------2-------|
-------------5-----4----|--------5----4-----------|-------------5-----4----|
----0--3--0-------------|--0--0-------------3b-0--|----0--3--0-------------|


A5
------------------------|------------------------|------------------------|
------------------------|------------------------|------------------------|
--0----3b------------0--|----0--3b---------------|--0----3b------------0--|
------------2--0--3-----|------------2--0--3--4--|------------2--0--3-----|


E5
------------------------|-------------------------|------------------------|
------------------------|----------------2--------|----------------2-------|
----0--3b---------------|--------5----4-----------|-------------5-----4----|
------------2--0--3--4--|--0--0-------------3b-0--|----0--3--0-------------|


D A
-------------------------|------------------------|-------------------------|
----------------2--------|----------------2-------|--0----2--0--2--3--4-----|
--------5----4-----------|-------------5-----4----|----------------------0--|
--0--0-------------3b-0--|----0--3--0-------------|-------------------------|


E5 D
-------------------------|-------------------------|-------------------------|
-------------------------|-------------------------|----------------------0--|
----0--2--0--2--3--4-----|----------------------2--|-----2-------------------|
----------------------0--|----0--2--0--2--3--4-----|--4-----4--3--2--0-------|


A E5
-------------------------|-------------------------|-------------------------|
----0--2--0--2--3--4-----|-------------------------|-------------------------|
----------------------0--|----0--2--0--2--3--4-----|----------------------2--|
-------------------------|----------------------0--|----0--2--0--2--3--4-----|


D A E5
-------------------------|-------------------------|-------------------------|
----------------------0--|----0--2--0--2--3--4-----|-------------------------|
-----2-------------------|----------------------0--|----0--2--0--2--3--4-----|
--4-----4--3--2--0-------|-------------------------|----------------------0--|


D A
-------------------------|-------------------------|-------------------------|
-------------------------|----------------------0--|----0--2--0--2--3--4-----|
----------------------2--|-----2-------------------|----------------------0--|
----0--2--0--2--3--4-----|--4-----4--3--2--0-------|-------------------------|


B5
-------------------------|--------------------------|-------------------|
-------------------------|--------------------------|-------------------|
----0--2--0--2--3--4--0--|--2--2--2--2--2--2--2--2--|--2----------------|
-------------------------|--------------------------|-------------------|


A5
------------------------|------------------------|------------------------|
------------------------|------------------------|------------------------|
--0----3b------------0--|----0--3b---------------|--0----3b------------0--|
------------2--0--3-----|------------2--0--3--4--|------------2--0--3-----|



------------------------|------------------------|------------------------|
------------------------|------------------------|------------------------|
----0--3b---------------|--0----3b------------0--|----0--3b---------------|
------------2--0--3--4--|------------2--0--3-----|------------2--0--3--4--|


E5
------------------------|------------------------|-------------------------|
------------------------|------------------------|----------------2--------|
--0----3b------------0--|----0--3b---------------|--------5----4-----------|
------------2--0--3-----|------------2--0--3--4--|--0--0-------------3b-0--|



------------------------|-------------------------|------------------------|
----------------2-------|----------------2--------|----------------2-------|
-------------5-----4----|--------5----4-----------|-------------5-----4----|
----0--3--0-------------|--0--0-------------3b-0--|----0--3--0-------------|



-------------------------|------------------------|-------------------------|
----------------2--------|----------------2-------|----------------2--------|
--------5----4-----------|-------------5-----4----|--------5----4-----------|
--0--0-------------3b-0--|----0--3--0-------------|--0--0-------------3b-0--|


D A E5
------------------------|-------------------------|-------------------------|
----------------2-------|--0----2--0--2--3--4-----|-------------------------|
-------------5-----4----|----------------------0--|----0--2--0--2--3--4-----|
----0--3--0-------------|-------------------------|----------------------0--|


D A
-------------------------|-------------------------|-------------------------|
-------------------------|----------------------0--|----0--2--0--2--3--4-----|
----------------------2--|-----2-------------------|----------------------0--|
----0--2--0--2--3--4-----|--4-----4--3--2--0-------|-------------------------|


E5 D
-------------------------|-------------------------|-------------------------|
-------------------------|-------------------------|----------------------0--|
----0--2--0--2--3--4-----|----------------------2--|-----2-------------------|
----------------------0--|----0--2--0--2--3--4-----|--4-----4--3--2--0-------|


A E5
-------------------------|-------------------------|-------------------------|
----0--2--0--2--3--4-----|-------------------------|-------------------------|
----------------------0--|----0--2--0--2--3--4-----|----------------------2--|
-------------------------|----------------------0--|----0--2--0--2--3--4-----|


D A
-------------------------|-------------------------|-------------------------|
----------------------0--|----0--2--0--2--3--4-----|-------------------------|
-----2-------------------|----------------------0--|----0--2--0--2--3--4--0--|
--4-----4--3--2--0-------|-------------------------|-------------------------|


B5 E5
--------------------------|--------------------------|-------------------------|
--------------------------|--------------------------|-----2-------2-----------|
--2--5--4--3--2--5--4--3--|--2--1--0-----0-----------|----------------4/-5-----|
--------------------------|-----------3-----3--2--1--|--0-------0-----------0--|



-----------------------|-------------------------|-----------------------|
----1/---2----3/-4-----|----2--------2-----------|----1/---2----3/-4-----|
-----------------------|----------------4/-5-----|-----------------------|
--------------------0--|-------3--0-----------0--|--------------------0--|



-------------------------|-----------------------|-------------------------|
----2--------2-----------|----1/---2----3/-4-----|----2--------2-----------|
----------------4/-5-----|-----------------------|----------------4/-5-----|
-------3--0-----------0--|--------------------0--|-------3--0-----------0--|


G5
----------------------|-------------------------|-------------------------|
----1----2----4-------|-------------------------|-------------------------|
----------------------|-------------------------|-------------------------|
-------------------3--|----1--3--1--3--1--2--3--|----1--3--1--3--1--2--3--|


E5
-------------------------|-------------------------|-------------------------|
-------------------------|-------------------------|----2--------2-----------|
-------------------------|-------------------------|----------------4/-5-----|
----1--3--1--3--1--2--3--|----1--3--1--3--1--2--0--|-------3--0-----------0--|


G5
-----------------------|-------------------------|----------------------|
----1/---2----3/-4-----|----2--------2-----------|----1----2----4-------|
-----------------------|----------------4/-5-----|----------------------|
--------------------0--|-------3--0-----------0--|-------------------3--|



-------------------------|-------------------------|-------------------------|
-------------------------|-------------------------|-------------------------|
-------------------------|-------------------------|-------------------------|
----1--3--1--3--1--2--3--|----1--3--1--3--1--2--3--|----1--3--1--3--1--2--3--|


E5
-------------------------|-------------------------|-----------------------|
-------------------------|----2--------2-----------|----1/---2----3/-4-----|
-------------------------|----------------4/-5-----|-----------------------|
----1--3--1--3--1--2--0--|-------3--0-----------0--|--------------------0--|


G5
-------------------------|----------------------|-------------------------|
----2--------2-----------|----1----2----4-------|-------------------------|
----------------4/-5-----|----------------------|-------------------------|
-------3--0-----------0--|-------------------3--|----1--3--1--3--1--2--3--|


A5
-------------------------|-------------------------|------------------------|
-------------------------|-------------------------|------------------------|
-------------------------|-------------------------|---------------------0--|
----1--3--1--3--1--2--3--|----1--3--1--3--1--2--3--|----1--3--1--3--1-------|


B
-------------------------|------------------------|--------------------------|
-------------------------|------------------------|--------------------------|
----0--0--0--0--------0--|-------0-----0-----0----|--2--2--2--2--2--2--2--2--|
----------------3--0-----|----3-----3-----3-------|--------------------------|


D A
-------------------|------------------|-------------------------|
-------------------|------------------|--0----2--0--2--3--4-----|
--2----------------|------------------|----------------------0--|
-------------------|------------------|-------------------------|


E5 D
-------------------------|-------------------------|-------------------------|
-------------------------|-------------------------|----------------------0--|
----0--2--0--2--3--4-----|----------------------2--|-----2-------------------|
----------------------0--|----0--2--0--2--3--4-----|--4-----4--3--2--0-------|


A E5
-------------------------|-------------------------|-------------------------|
----0--2--0--2--3--4-----|-------------------------|-------------------------|
----------------------0--|----0--2--0--2--3--4-----|----------------------2--|
-------------------------|----------------------0--|----0--2--0--2--3--4-----|


D A E5
-------------------------|-------------------------|-------------------------|
----------------------0--|----0--2--0--2--3--4-----|-------------------------|
-----2-------------------|----------------------0--|----0--2--0--2--3--4-----|
--4-----4--3--2--0-------|-------------------------|----------------------0--|


D A
-------------------------|-------------------------|-------------------------|
-------------------------|----------------------0--|----0--2--0--2--3--4-----|
----------------------2--|-----2-------------------|----------------------0--|
----0--2--0--2--3--4-----|--4-----4--3--2--0-------|-------------------------|


B5
-------------------------|--------------------------|--------------------------|
-------------------------|--------------------------|--------------------------|
----0--2--0--2--3--4--0--|--2--2--2--2--2--2--2--2--|--2--2--2--2--2--2--2--2--|
-------------------------|--------------------------|--------------------------|


A5
--------------------------|--------------------------|-------------------|
--------------------------|--------------------------|-------------------|
--2--2--2--2--2--2--2--2--|--2--2--2--2--2--2--2--2--|--0----------------|
--------------------------|--------------------------|-------------------|



------------------------|-------------------|-------------------||
--4r---2-------------2--|-------------------|-------------------||
----------4r---2--------|-------------------|-------------------||
------------------4-----|--0----------------|--0----------------||

Taken from The BassMasta -- http://www.tabs-database.com



Get this song at amazon.com      Ebay     Ringtones Ringtones  


Learn to play: Songwriting, Piano, Harmonica, Guitar
Also available at Muzikum: Guns 'N' Roses - Bad apples lyrics

Related Guns N Roses Bass Tabs

The Garden bass
Outta Get Me bass
Raw Power bass
Double Talkin Jive bass
You Could Be Mine bass
Nightrain bass
Down On The Farm bass
Locamotive bass
Bad Obsession bass
Since I Dont Have You bass
Brakdown bass
Since I Don't Have You bass
Get In The Ring bass
Shot Gun Blues bass
My Michelle bass
Prefect Crime bass
Garden Of Eden (the Normal Version) bass
Rocket Queen bass
Your Crazy bass
Since I Don Have You bass


Guitar Tabs









All tabs are property and copyright of their owners. All tabs provided for educational purposes only. Privacy Policy, DMCA