Guns N Roses

Back Off Bitch2 Tabs



More from Guns N Roses

Guns N Roses Tabs
Guns N Roses Chords
Guns N Roses Bass
Guns N Roses Lyrics

e--------------0--------0---------------------------------------------


B--------------0------------------------------------------------------
G-----------------2b^(3)--2^r-0---------------------------------------
D-2p0---------------------------2-0-2-2/4-4-4/5-5-5/7-7-7/9-9-9/12----
A----2p0--------------------------------------------------------------
E-------3b^r0---------------------------------------------------------

e----------------------------------------------------15-17-15-17b^18--
B--------------14-14---------------------------14h16------------------
G--------------14-14-12----12-------12h14/16------------------------
D-12-12/14-14-----------14-14-12h14---------------------------------
A---------------------------------------------------------------------
E---------------------------------------------------------------------

At the end, bend the "17" up and hold it for 2 counts, then bend it
eight more times, then bend it and hold it for a measure as it fades
into the song.
Get this song at amazon.com      Ebay     Ringtones Ringtones  


Learn to play: Songwriting, Piano, Harmonica, Guitar
More Guns 'N' Roses lyrics available at Muzikum

Related Guns N Roses Tabs

Back Off Bitch2 tabs
Heartbreak Hotel tabs
Sweet Child O Mine tabs
Mr. Brownstone (intro) tabs
Out Ta Get Me Intro tabs
Use Your Illusion 2 Album tabs
Big Dumb Sex tabs
Better tabs
DustN Bones tabs
Aint It Fun2 tabs
Word Up tabs
Breakdown tabs
Reckless Life tabs
I Used To Love Her tabs
I Dont Care About You tabs
Live And Let Die tabs
Wild Horses Live In Tokyo Solo tabs
Mr. Brownston tabs
Live Performance Collection tabs
Night Train tabs


Guitar Tabs









All tabs are property and copyright of their owners. All tabs provided for educational purposes only. Privacy Policy, DMCA

Online converter - videoconverter.com