Guns N Roses

Back Of Bitch Tabs



More from Guns N Roses

Guns N Roses Tabs
Guns N Roses Chords
Guns N Roses Bass
Guns N Roses Lyrics



Song: Back Of Bitch
Band: Guns n Roses
Album: Use Your Illusion I
Tabbed by: Kabir
slash790@hotmail.com

note: Heres the tab to one of the best songs by GnR! :)


Gtr I (Eb Ab Db Gb Bb Eb)

4/4
Gtr I
Intro:

|--------------------0----------------------------------------------|
|--------------------0----------------------------------------------|
|-2-0-------------------2-4-2-0-------------------------------------|
|-----2-0-----------------------2-0-2---0-2S4-4-4S5-5-5-7-/7-9-9-12-|
|----------------2--------------------------------------------------|
|---------3b5r=5-0--------------------------------------------------|



|-------------|
|-------------|
|-12-14-14----|
|-------------|
|-------------|
|-------------|



|----------------------------------------------------15-17-15-17b19-17b19-17b19-17b19-17b19----|
|-14b16--14b16---------------------------------15-17-------------------------------------------|
|-14b16--14b16-12---------------12-14-14S16-16-------------------------------------------------|
|-----------------14-14S0-12-14----------------------------------------------------------------|
|----------------------------------------------------------------------------------------------|
|----------------------------------------------------------------------------------------------|


Riff A Play twice....

|----------------------------------------|
|----------------------------------------|
|-9--------------------------------------|
|-7-----9S7-----7-7-7---2-9-----7-7-7----|
|-------7S5-----4-5-5-----7-----4-5-5----|
|---0-0-----0-0-------3-----0-0----------|



Riff B (The lyrics go "oh baby...pretty baby....)

|-0----------------|
|-0-----------3----|
|-1---0---2---2----|
|-2---0---2---0----|
|-2-------0---0----|
|-0---3------------|

Verse 1
(lyrics go "i aint playing childhood games.....")

Riff C
|------------------------------------------|
|------------------------------------------|
|-------------5---------------------7-9----|
|---2-----2---5-----5-5---7-----7---7S9----|
|---2-----2---3-----5-5---7-----7---5S7----|
|-0---0-0---0---3-3-----3-5-5-5---5--------|


Chorus
Riff D play thrice

|---------------------------------------------|
|---------------------------------------------|
|---------------------------------------------|
|---9S7--7-------9S7-------9-7---7---7-7------|
|---7S5--4-------7S5-------7-5-0-4-0-5-4S5----|
|-0--------0-0-0------0-0---------------------|

Riff E
"back of bitch...." Play twice

|----------------------------------------|
|----------------------------------------|
|-0--2----------9-------7-----9-----7----|
|-0--2----------9-------7-----9-----7----|
|----0------7-7---7-7-7---7-7---7-7------|
|-3-----0-3------------------------------|


Riff F (Awsome riff!!)

|--------------------------------------------------------------10-------------|
|------------8--8-7-----10--7b8===7------------8-8-7-----10b11----10-8-10-7---|
|-9--9-7------------7---------------9--9-7-----------7----------------------9-|
|--------9-7----------9--------------------9-7---------9----------------------|
|-----------------------------------------------------------------------------|
|-----------------------------------------------------------------------------|



|---------------|
|---------------|
|----7-9-7-9----|
|-9-------------|
|---------------|
|---------------|

Verse 2
riff C

Chorus
Riff D (play thrice)

Riff E (play twice)

Riff F

SOLO:

|-----------------------------------9-12b14--------------------------------------9-10-12-10-9-----|
|-9h11-11-9h11-11-9-11-11-10-----10---------10-12-10--9p-10p-9p-10-9----h9-12-10--------------12--|
|-9h10-10-9h10-10-9-10-10-11--11-------------------------------------11---------------------------|
|-------------------------------------------------------------------------------------------------|
|-------------------------------------------------------------------------------------------------|
|-------------------------------------------------------------------------------------------------|



|---------------7-9-10-9-7-----------7-5-7-9-7-5s4-6-5-7-5-4-5-4---------------|
|-10-9sh7-h9-10------------10-9-7-h7-----------------------------7-5---------2-|
|--------------------------------------------------------------------6-5-4-4---|
|------------------------------------------------------------------------------|
|------------------------------------------------------------------------------|
|------------------------------------------------------------------------------|



|-2--------------------------------------14-17-16-14-16----14-------14----14-----------------|
|---5p2---------2---17b19--17---------14----------------17----17b19----17----14-15--14h15-14-|
|-------4-6-2-4-2------------------14--------------------------------------------------------|
|--------------------------------------------------------------------------------------------|
|-------------------------------16-----------------------------------------------------------|
|--------------------------------------------------------------------------------------------|


|-----------------------------------------------------------------------------------|
|----14-------14--------------------------------------------------------------------|
|-16----16h17----17p16p14--16p14h16-14p13----14----13-14-13----13-------------------|
|-----------------------------------------16----16----------16----16-14-------------|
|-----------------------------------------------------------------------16-15-14----|
|-----------------------------------------------------------------------------------|



|----------------------------------------14-16-17b19--12----12----|
|-------------------------------------14-----------------12-------|
|----------------------------------14-----------------------------|
|----------------------------14-16--------------------------------|
|-12-14-14-12-------12-14S16--------------------------------------|
|-------------12-14-----------------------------------------------|

Verse 3
Riff B (play twice)

Chorus
Riff D (play 4 times)

Riff E (2 times)

SOLO 2 (play with Riff E)

|-----------------------12-----14-----15-----19------------|
|-12--14b15--14--14p12--15b17--17b19--18b20--22b24---------|
|-12--14b15--14--14p12--------------------------------9----|
|-----------------------------------------------------9----|
|-----------------------------------------------------7----|
|----------------------------------------------------------|


END

Duration Legend
---------------
W - whole; H - half; Q - quarter; E - 8th; S - 16th; T - 32nd; X - 64th; a - acciaccatura
+ - note tied to previous; . - note dotted; .. - note double dotted
Uncapitalized letters represent notes that are staccato (1/2 duration)
Irregular groupings are notated above the duration line
Duration letters will always appear directly above the note/fret number it represents the
duration for. Duration letters with no fret number below them represent rests. Multi-
bar rests are notated in the form Wxn, where n is the number of bars to rest for. Low
melody durations appear below the staff

Tablature Legend
----------------
h - hammer-on
p - pull-off
b - bend
pb - pre-bend
r - bend release (if no number after the r, then release immediately)
/ - slide into or out of (from/to "nowhere")
s - legato slide
S - shift slide
- natural harmonic
[n] - artificial harmonic
n(n) - tapped harmonic
~ - vibrato
tr - trill
T - tap
TP - trem. picking
PM - palm muting
n/ - tremolo bar dip; n = amount to dip
n - tremolo bar down
n/ - tremolo bar up
/n - tremolo bar inverted dip
= - hold bend; also acts as connecting device for hammers/pulls
- volume swell (louder/softer)
x - on rhythm slash represents muted slash
o - on rhythm slash represents single note slash

Misc Legend
-----------
| - bar
|| - double bar
||o - repeat start
o|| - repeat end
*| - double bar (ending)
: - bar (freetime)
$ - Segno
& - Coda
Tempo markers - = BPM(8/16=s8/s16), where s8 = swing 8ths, s16 = swing 16ths


***************************************************************************************
* Generated using Power Tab Editor by Brad Larsen - http://powertab.guitarnetwork.org *
************************************************************************************


Get this song at amazon.com      Ebay     Ringtones Ringtones  


Learn to play: Songwriting, Piano, Harmonica, Guitar
More Guns 'N' Roses lyrics available at Muzikum

Related Guns N Roses Tabs

Coversongs Collection tabs
Youre Crazy (Acoustic) tabs
Jonny Came Marching Home tabs
Down On The Farm tabs
Reckless Life tabs
I Used To Love Her tabs
Its Alright tabs
Slash Licks tabs
Mama Kin tabs
Spaghetti Incident Album tabs
Patience Solo tabs
You're Crazy tabs
Shadow Of Your Love tabs
Live And Let Die (main Riff) tabs
Yesterday tabs
Song Collection tabs
Nice Boys tabs
Estranged (rate Please) tabs
Bad Obsession tabs
Locomotive tabs


Guitar Tabs









All tabs are property and copyright of their owners. All tabs provided for educational purposes only. Privacy Policy, DMCA