Guns N Roses

Appetite For Destruction Album Tabs



More from Guns N Roses

Guns N Roses Tabs
Guns N Roses Chords
Guns N Roses Bass
Guns N Roses Lyrics



Band- Guns N Roses
Album- Appetite For Destruction

1.Welcome To The Jungle
2.It's So Easy
3.Nightrain
4.Outta Get Me
5.Mr.Brownstone
6.Paradise City
7.My Michelle
8.Think About You
9.Sweet Child O' Mine
10.You're Crazy
11.Anything Goes
12.Rocket Queen

1.WELCOME TO THE JUNGLE

Intro. with echo

e||------------------------------------------|
B||------------------------------------------|
G||--4--4-4--2-4--2----4------4-------4------|
D||-----------------4----4--2----2-0----2----|
A||---------------------------------------2--|
E||------------------------------------------|

------------------------------------------|
------------------------------------------|
--4--4-4--2-4--2----4------4-------4------|
-----------------4----4--2----2-0----2----|
---------------------------------------2--|
------------------------------------------|

------------------------------------------|
------------------------------------------|
--4--4-4--2-4--2----4------4-------4------|
-----------------4----4--2----2-0----2----|
---------------------------------------2--|
------------------------------------------|

------------------------------------------|
------------------------------------------|
--4--4-4--2-4--2----4------4-------4------|
-----------------4----4--2----2-0----2----|
---------------------------------------2--|
------------------------------------------|

------------------------------------------|
------------------------------------------|
--4--4-4--2-4--2----4------4-------4------|
-----------------4----4--2----2-0----2----|
---------------------------------------2--|
------------------------------------------|

------------------------------------------|
------------------------------------------|
--4--4-4--2-2--2--------------------------|
-----------------4--4-4--2-2--2-0--0------|
-------------------------------------2-0--|
------------------------------------------|

-------------------------------------------|
-------------------------------------------|
--4--4-4--2-2--2---------------------------|
-----------------4--4-4--2-2--2-0--0-------|
-------------------------------------2--0--|
-------------------------------------------|

------------------------------------------|--------------------------|
--0--0-0----------------------------------|--------------------------|
----------2-2--2--------------------------|--4--4--4--4--4--4--4--4--|
-----------------4--4-4--2-2--2-0--0------|--4--4--4--4--4--4--4--4--|
-------------------------------------2-0--|--2--2--2--2--2--2--2--2--|
------------------------------------------|--------------------------|

------------------------|--------------------------|
------------------------|--------------------------|
--4--4--4--4--4----4---|--2-------2-2--0----------|
--4--4--4--4--4----4---|--2-------2-2--0----------|
--2--2--2--2--2----2---|--0-------0-0----------0--|
------------------------|-------3b--------3--2-----|

----------------------------|----------------------------|
----------------------------|----------------------------|
--2--x-x----2-2--0----------|--2--x-x----2-2--0----------|
--2--x-x----2-2--0----------|--2--x-x----2-2--0----------|
--0--x-x----0-0----------0--|--0--x-x----0-0----------0--|
---------3b--------3--2-----|---------3b--------3--2-----|


Welcome to the jungle
-----------x-5------------||---------------------------|
--------------------------||---------------------------|
--2-----x-----------------||---------------------------|
--2-----x-----------------||---------------------------|
--0--0--x----------3-0----||--0--0------0--0-----------|
-----------------------2--||--------3b-------3--2--0-0-|


we got fun and games We got everything you want
---------------------------|---------------------------|
---------------------------|---------------------------|
---------------------------|---------------------------|
---------------------------|---------------------------|
--0--0------0--0-----------|--0--0------0--0-----------|
--------3b-------3--2--0-0-|--------3b-------3--2--0-0-|


honey we know the names we are the people that can find what
---------------------------|---------------------------|
---------------------------|---------------------------|
-----------------------7/9-|--9--9--7--x-9--9----------|
-----------------------7/9-|--9--9--7--x-9--9-7--6--4--|
--0--0------0--0----0--5/7-|--7--7--5--x-7--7-5--4--2--|
--------3b-------3---------|---------------------------|


ever you may need If you got the money honey
---------------------------|---------------------------|
---------------------------|---------------------------|
--9--9--7--x-9--9----------|--9--9--7--x-9--9----------|
--9--9--7--x-9--9-7--6--4--|--9--9--7--x-9--9-7--6--4--|
--7--7--5--x-7--7-5--4--2--|--7--7--5--x-7--7-5--4--2--|
---------------------------|---------------------------|

we got your disease In the Welcome to the jungle Want to bring you to your
jungle
---------------------------|----------------------|----------------------|
---------------------------|----------------------|----------------------|
--9--9--7--x-9--9----------|--5-------------------|--7-------------------|
--9--9--7--x-9--9-7--9-----|--5-------------------|--7-------------------|
--7--7--5--x-7--7-5--7--0--|--3----2--------------|--5----4--------------|
---------------------------|------------5----3----|------------7----5----|


sha na na na na (11 na) knees knees
----------------------------|----------------------------|
----------------------------|----------------------------|
--9--9----------------------|----------------------------|
--9--9----------------------|----------------------------|
--7--7--5-------------------|--7--7--5-------------------|
-----------6-6~65-5--3--0--|-----------6-6-65-5--3--0--|


Uh ah I wanna watch you bleed
----------------------------|------------------------|
----------------------------|------------------------|
----------------------------|------------------------|
----------------------------|------------------------|
--7--7--5-------------------|--7---5-----------------|
-----------6-6-65-5--3--0--|----------6----5--3--4--|

Welcome to the jungle we take it day by day
If you want it, you're gonna bleed,
but it's the price you pay.
And your a very sexy girl
who's very hard to please
You can taste the bright lights,
but you won't get there for free.
In the jungle, welcome to the jungle
Fell my, my, my, my serpentine.
Uh ah I wanna hear you scream

hear you scream guitar solo 1
------------------------|-------------------------------|
------------------------|-------------------------------|
------------------------|----12/-13-----------13----13~-|
------------------------|----11/-12-----12-14-14----14~-|
--7---5-----------------|-------------------------------|
----------6----5--3--4--|------------0------------------|

--------------------------|----------------------------|
----12------------15~-----|------------------15----15~-|
----12--13--------16~-----|----12/-13--------13----13~-|
--------14----------------|----11/-12------------------|
--------------------------|----------------------------|
--------------------------|------------0--0------------|

------------------15--15-----|----------19b---------19--18--17b-|
---12-14--14-----15--15-----|------17--------------------------|
------15--15-------------6/-|--18------------------------------|
-----------------------------|----------------------------------|
-----------------------------|----------------------------------|
-----------------------------|----------------------------------|

--------15-16-------------|------------------------------------------|
--------------15~------15b|----15p-12--------------------------------|
--------------------------|------------14b-14r--12-14-12-------------|
--------------------------|------------------------------14-14-------|
--------------------------|------------------------------------13-13-|
--------------------------|------------------------------------------|

---------------------------|---------------------------|
---------------------------|---------------------------|
--------------8b-----------|---------------------------|
---------------------11---|---------------------------|
--12r--10------------------|---------------------------|
----------12---------------|---------------------------|

Welcome to the jungle,
it's gets worse here every day
You learn to live like an animal,
in the jungle where we play
If you got a hunger for what you see
you'll take it eventually
You can have anything you want,
but you better not take it from me
In the jungle, Welcome to the jungle
watch it bring you to your
sha na na na na na na na knees knees
Uh ah I'm gonna watch you bleed


|--------------------|
|--7-----------------|
|--7------------5----|
|--7------------3----|
|--5-----------------|
|--------------------|

--3--------3--------|------------------------|----------------------------|
--3--------3---6----|--7------8p-7-----------|--12------13--12---------8--|
--4--------4---4----|--7------7--------------|--12-------------7-5--5-----|
--5--------5--------|--7------7-----7--10----|--12------------------------|
--5--------5--------|--5---------------8-----|--10------------------------|
--3--------3--------|------------------------|----------------------------|


And when you're high you never ever want to come down
-------------------------|-------------------------------|---------------------|
--7----------------------|--12------13p-12--------10-7--|--7------------------|
-----7-------------------|--12---------------------------|--7------------------|
--------7--6--7----10----|--12-------------1210--10--7--|--7------------10----|
-------------------8-----|--10---------------------------|---------------8-----|
-------------------------|-------------------------------|---------------------|


so down suck down
------------------------------|------------------------------|
--12--12--12--12--12----10----|--12--12--12--12--12----10----|
--12--12--12--12--12----10----|--12--12--12--12--12----10----|
--12--12--12--12--12----10----|--12--12--12--12--12----10----|
------------------------------|------------------------------|
------------------------------|------------------------------|


suck down
------------------------------|----------------------------------|
------------------------------|----------------------------------|
--12--12--12--12--12----10----|--14--14--14--14--14--14--14-12--|
--12--12--12--12--12----10----|--14--14--14--14--14--14--14-12--|
--10--10--10--10--10----8-----|--12--12--12--12--12--12--12-10--|
------------------------------|----------------------------------|


Yeah
--------------------------|---------------------------|
--------------------------|---------------------------|
-----6/-7--------9-----9--|--9--6/-7--------12~---12~-|
-----5/-6--------9-----9--|--9--5/-6--------12~---12~-|
--------------------------|---------------------------|
--0--------0--0-----0-----|-----------0--0------------|


guitar solo2
--------------------------|---------------------------|----------------------|
--------------------------|---------------------------|----------------------|
-----6/-7--------9-----9--|--9--6/-7--------12~---12~-|----------------------|
-----5/-6--------9-----9--|--9--5/-6--------12~---12~-|----------------------|
--------------------------|---------------------------|-----------7-----9r---|
--0--------0--0-----0-----|-----------0--0------------|--9-----------9-------|

--------------------------|-----------------------|--------------------------|
--------------------------|-----------------------|----------------------12--|
--------------------------|----------9b-----11r---|----------11--9----9b-11r-|
----------------9--9b-11--|-------------11--------|----------------11--------|
--------7-9/11------------|-----------------------|--------------------------|
--------------------------|-----------------------|--------------------------|

------------------------|---------------------0--|------0----0----0----|
----------12------------|---------------5-----5--|------3----2----0----|
----------11---9--------|------------6-----6-----|---------------------|
-----------------11--9~-|--9-----6--------------|---------------------|
------------------------|------------------------|---------------------|
------------------------|------------------------|---------------------|

------------------------|------------------------|-----------------------------|
--2r-----0-----0-----0--|----0--0--0--0----2--4--|---------------------15--15b-|
--2r-----0/-1--1--2/-4--|----4--2--2--1----2--4--|--------------4--------------|
------------------------|------------------4--4--|--2r--0-2--0--4--12----------|
------------------------|------------------------|-----------------------------|
------------------------|------------------------|-----------------------------|

------------------------|---------------------------------|
------15r---------------|------------------1412----------|
------------14b---14r---|--14r-12----------------------6b-|
------------------------|---------1412/14----12----------|
------------------------|---------------------------------|
------------------------|---------------------------------|

----------------------|---------------------|-------------------|
----------------------|---------------------|-------------------|
------4---------------|---------------------|-------------------|
---------6b-----4-----|---------------------|-------------------|
-------------------4r-|------2--------------|-------------------|
----------------------|---------4r-----0----|--2~---------------|


slide up
------------------||-------------------|--------------------|
------------------||--4----------------|-------4/-----------|
------------------||--4----------------|-------4/-----------|
------------------||--4----------------|-------4/-----------|
------------------||--2----------------|--------------------|
------------------||-------------------|--------------------|

----------------------|----------------34--|--31-----31--31-30-----|
------x---------------|--------------------|--------------------------|
------12--------------|--------------------|--------------------------|
------x---------------|--------------------|--------------------------|
------x---------------|--------------------|--------------------------|
----------------------|--------------------|--------------------------|

--28-----24---24-------|--19--------------||
------------------------|-------------------||
------------------------|-------------------||
------------------------|-------------------||
------------------------|-------------------||
------------------------|-------------------||

----------------------|-----------------------|
--7----6----7----3----|--5----3----5----6-----|
--6----5----6----4----|--6----4----6----7-----|
--4----3----4----5----|--7----5----7----8-----|
----------------------|-----------------------|
----------------------|--------------------0--|

1st 4 bars 3 times
In the jungle Welcome to the jungle
Watch it bring you to your
sha na na na na knees knees
In the jungle, welcome to the jungle
Feel my, my, my, my serpentine.
etc..

2.IT'S SO EASY

4/4
Gtr I

::Played during Duffs bass intro::

|-------------------------------|
|-12-------12---12----------|
|-12-------12-----------|
|-12------------------------|
|---------------------------|
|-------------------------------|

::Main riff::

|-----------0----0-0----|
|-----------0----0-0----|
|-3-3S2-0---------------|
|-3-3S2-0---------------|
|---------2-------------|
|---------0----0--------|

::Played by gtr 2 during main riff::

|-----------------------------|
|-----------------------------|
|-----------------------------|
|--------------------2--------|
|------------------2---1-0----|
|-5b6-5--3--0--3-4------------|

::verse::

Bb5 A5 G5 E E5(2) Bb5
I see your sis - ter in her sun - day

A5 G5 (E) E5
Dress. She's out to.......

::During chorus played by Slash::

|-5-5-3-5--6p5p3p0-0-0------|
|-5-5-3-5--6p5p3p0-0-0------|
|------------------------------|
|------------------------------|
|------------------------------|
|------------------------------|

::Chorus::
A5 G5 A5 Bb5 E Esus#4 Esus4
It's So Eas - y,

p.m slide
E Esus#4 Esus4
Eas - y................


::Bridge 1::

|--------------------------------------------------------------------|
|--------------------------------------------------------------------|
|---------------------------------------0-----0---0-----0-----0---0--|
|-----0-----0---0------0-----0---0----4-----4---------1-----1--------|
|---0-----0----------2-----2--------2-----2-----2---0-----0-----0----|
|-2-----2-----2----3-----3-----3-------------------------------------|

::Bridge 1 continued - immidietly after first part gets over::

PM| PM----| PM| PM----|

|------------------------------------------------|
|------------------------------------------------|
|------------------------------------------------|
|------------------------------------------------|
|-----5-7-5-7---------5-7-----5-7---------5-7----|
|-0-0---------0-0-0-0-----0-0-----0-0-0-0--------|


PM------|

|--------------------------|
|--------------------------|
|--------------------------|
|--------------------------|
|-----------7-7-7-5--------|
|-0-0-0-0-0---------7-5----|

::Pre solo verse::

|---------------0-0-------0----|
|---------------0-0-3-3S5-0----|
|-7-7-5-7-----------2-2S4------|
|-7-7-5-7-5-4-2----------------|
|-5-------5-4-2----------------|
|-------------0----------------|


::Solo::

|-------------------------------12---------------------------------------------|
|-17b19--17b19--17b19---15b16.5----15p-12-------------12-----------------------|
|---------------17b19---------------------14b15-12-14----12-----------12-14----|
|-----------------------------------------------------------14-14--14----------|
|------------------------------------------------------------------------------|
|------------------------------------------------------------------------------|


~~

|-----------------------------------|
|-12----12----12-------12-----15----|
|----15----15----15-14----12--------|
|-----------------------------------|
|-----------------------------------|
|-----------------------------------|


~~

|-------------------------------|
|-14b15-14b15-14----------15----|
|----------------12-------------|
|-------------------14-14-------|
|-------------------------------|
|-------------------------------|

::last verse::

F#5 G5 B5 A5
Come with_ me. Don't ask__ me where__ cause' I don't know._

F#5 G5 B5
I'll__ try__ to__ please_ you. I ain't got no money but it

A5
goes to show

rake rake
|------15--12-------10----(10)~~~~(10)s----------0--|
|----"------------"-10fb--(10)----(10)s-2fb--(2)----|
|---"------------"----------------------------------|
|--"------------"-----------------------------------|
|---------------------------------------------------|
|---------------------------------------------------|

|---------------------------------------------------|
|--3p0----------------------------------------------|
|------2fbr(2)p0------------------------------------|
|----------------2--2~~(2)~~-2--5fbr----------------|
|---------------------------------------------------|
|-------------------------------------5-(5)slowfb---|

|---------------------------------------------------|
|---------------------------------------------------|
|---------------------------------------------------|
|---------------------------5hb---------------------|
|-----------------5hb--7--5-------7-7-(7)-7-7---5hb-|
|-3-(3)-5fb--3-0------------------------------7-----|

|---------------------------------------------------|
|---------------------------------------------------|
|------------------------7--9p7---7-(7)-9--9-----7hb|
|----7s8s7p5-7p5-----7s5--------9-------------9-----|
|-7--------------7-5--------------------------------|
|---------------------------------------------------|
pm ..... ......

|---------------------------------------------------|
|--------8hb----------12-15-------------------------|
|-9---9----------14fb-------14fbr-12--14fb---15--12-|
|---------------------------------------------------|
|---------------------------------------------------|
|---------------------------------------------------|

|--------------12-----------------------------------|
|-----------------15--14h15p14p12---14---12---------|
|-14fb(14)rp12------------------------------14p12---|
|---------------------------------------------------|
|---------------------------------------------------|
|---------------------------------------------------|

|---------------------------------------------------|
|---------------------------------------------------|
|-14-(14)fb--14fb----14--13h14p13------12-----------|
|-----------------14---------------14---------------|
|---------------------------------------------------|
|---------------------------------------------------|
p.m ..

|---------------------------------------------------|
|-14hb(14)rp12----14--------------------------------|
|--------------14----12-----------------------------|
|-----------------------14-14s12-12s8-7-7s5--(5)----|
|---------------------------------------------------|
|---------------------------------------------------|

|---------------------------------------------------|
|---------------------------------------------------|
|---------------------------------------------------|
|--------------8--7--5------------------------------|
|-----------------------7---------------------------|
|--3s(17)s-----------------6--5--3hb--0----(0)------|

|---------------------------------------------------|
|---------------------------------------------------|
|-9-9----7-----9------------------------------------|
|-9-9----7-----9-----8--7--5------------------------|
|-7-7----5-----7--------------7---------------------|
|-----7-----0----0---------------6--5--3hb--0----(0)|
p.m .. .. ..

|---------------------------------------------------|
|---------------------------------------------------|
|-9-9----7-----9------------------------------------|
|-9-9----7-----9-----8--7--5------------------------|
|-7-7----5-----7--------------7---------------------|
|-----7-----0----0---------------6--5--3hb--0----(0)|
p.m .. .. ..
|---------------------------------------------------|
|---------------------------------------------------|
|-9-9----7-----9------------------------------------|
|-9-9----7-----9-----8--7--5----------------2----(2)|
|-7-7----5-----7--------------7-------------2----(2)|
|-----7-----0----0---------------6--5--3hb--0----(0)|
p.m .. .. ..

3.NIGHTRAIN

Intro:

|--------------3--3-2p0-------0----0--0-0--0---------------------------------|
|---------------------0--75--5----5--5-3--31-1-----/3--31--1-0-1-0--------|
|---2-----------------------------------------------------------------2--0-2-|
|---2------------------------------------------------------------------------|
|---0------------------------------------------------------------------------|
|----------------------------------------------------------------------------|
|
|---------------------------------------------1-----3------------------------|
|-------------8--8--7----7---5----5--5-3--3---1-----3---3-3---3-3-3----------|
|-------------9--9--7----7---5----5--5-4--4---2-----0---0-4---5-4-5--2--2-2--|
|---7---------7--7--7----7---5----5--5-5--5-3-----3/5---5-5---5-5-5--2--0-2--|
|---7-----0---------------------------------------------------------------0--|
|---5------------------------------------------------------------------------|


First verse:

-----------------------------------------------------------------------------------|
-----------------------------------------------------------------------------------|
---------2-------2-------2--2--------2---------2---2-----------------2------2----2-|
---------2-------2-------2--2--------2---------2---2-----------------2------2----2-|
---------0-------0-------0--0--------0---------0---0-----------3b----0------0----0-|
-------------3------------------0-3-----------------------0-3----------0-3-----3---|

Look out! Well I'm a west coast struttin', one bad mother, got a rattlesnake suitcase

----------------------------------------------------|
----------------------------------------------------|
------2-----------2------2---2---------------2----2-|
------2-----------2------2---2---------------2----2-|
------0-----------0------0---0---------------0----0-|
-------------0-3----------------------0--3----------|

under my arm. Said I'm a mean machine, been drinkin' gasoline

------------------------------------|
------------------------------------|
-------------------2---------2----2-|
-------------------2---------2----2-|
--------3-b--------0---------0----0-|
-0--3------------------0--3-----3---|

, and honey you can make my motor hum...

2nd and 3rd verses: same, finish with a D5

Chorus:
play this part 5 times, then play that:
|------------------------|---------------------------------------------------|
|-*--------------------*-|---------------------------------------------------|
|-------------------2----|-------------------------------------------------2-|
|---------2-----2---2----|-------------------------------------------------2-|
|-*-0-3qb-0-3qb-0---0--*-|--0-3qb-0-3qb-0---------3-2-3--2--0----3-2-3-2---0-|
|-----------------3------|----------------3-1---1--------------3---------3---|


------------------------------------------|
-------------------3---------------12~~~--|
-------------------2---------------12~~~--|
-------------------0----------------------|
--0-3qb-0-3qb-0---------------------------|
-----------------3------------------------|


First solo:

--------------7-7-------------------------------------------------|
-7----7----7--7-7----7----7----7-7--9hb---r--9hb--9hb--7-9-7-9-7~-|
---9b---9b--------9b---9b---9b------9hb---r--9hb--9hb--7-9-7-9-7~-|
------------------------------------------------------------------|
------------------------------------------------------------------|
------------------------------------------------------------------|


-10-9-7-------------------------------------------------------------|
--------10-9-7------------------------------------------------------|
---------------9-9hb--r-p7-7-9-7------------------------------------|
---------------------------------9-7-97-75-54-42-2-0--4--5--6/7-|
----------------------------------------------------------4--5--6/7-|
----------------------------------------------------------2--3--4/5-|


-10-----------------10------10-------------------9-12hb-12-r-----------------|
-10-------10---10---10------10---10---10------10--------12----10-12-12br-p10-|
-9b---9b--9br---7---9b------9b---9b-r--7--/11--------------------------------|
-----------------------------------------------------------------------------|
-----------------------------------------------------------------------------|
-----------------------------------------------------------------------------|

---------------10----10----------10----13/14--10-----------------------|
---------------10----10----------10----12/13--10-----------------------|
-11-11---11-------------12-10h11------------------12b-r-p10-12-10h11p0-|
------------12---------------------------------------------------------|
-----------------------------------------------------------------------|
-----------------------------------------------------------------------|

------14------------------------------------------------------------|
-17b-----17p14------------------------------------------------------|
---------------19br-p14----16p14------------------------------------|
------------------------16-------16-14------------------------------|
---------------------------------------16-1413----------13----12---|
---------------------------------------------------14-14----14------|

-----------------------------------------------------------------|
-7---7--6/7---7---6/7--7-------7/9---/10----9---97---5--542--|
-----------------------------------------------------------------|
-7---7--6/7---7---6/7--7---0---7/9---/11----9---97---6--642--|
-----------------------------------------------------------------|
-----------------------------------------------------------------|

A.H.
------4--5------------------------------------------------------------|
------------5b-r---2--5-----------------------------------------------|
-4b----------------------4br-p2-4--2--4b-4p2--------------------------|
----------------------------------------------4--4hb------------r--2-|
----------------------------------------------------------------------|
----------------------------------------------------------------------|

----------------0---0-1--2---2---0--2--1--0--|
----------------0---0-1--2---2---0--2--1--0--|
---------------------------------------------|
---------------------------------------------|
---------------------------------------------|
-0-1-2---2-1-0-------------------------------|


Then comes the bridge:

------------------------------------------------------|
-7///////////////14--8-----8--7-------7---*-*--75----|
-7///////////////14--9-----9--7-------7---*-*--75----|
-7///////////////14--7-----7--7-------7---*-*--75----|
----------------------------------0-------------------|
------------------------------------------------------|

-----------------------------------------------3-|
-----------------------------------------------3-|
----5----4--*-*-4-*-*-*------10-----------*-*--0-|
----7----5--*-*-5-*-*-*------10-----------*-*--0-|
-------------------------8----8------------------|
-0---------------------------------------------3-|

A.H.
----------------------------------------------|
-5------5-------------------------------------|
-5------5----4---5------4----0--2hb-----------|
-5------5----5---5------5----0----------------|
----*-*---------------------------------------|
----*-*----3----------------------------------|


Last Riff:

--------------------------------------------------------------------------|
--------------------------------------------------------------------------|
---------------2----------------------------------------------------------|
---------------2----------------------------------------------------------|
-0-3-0-3-0-----0----0-3-0-3-0---------3-2-3-2-0----3-2-3-2-0----3-2-3-2-0-|
------------3-----------------3--1--1------------1------------3-----------|


Outro:
A.H.
-------------------------------------------------------------------------|
-------------------------------------------------------------------------|
--------------------------------------------2----2-2-2-2-2b-----2--r--2--|
-------------------------------------------------------------------------|
---------------3-5-5b--r-p3--5---5b--3---0-------------------------------|
-3---b----5--5-----------------------------------------------------------|


-------------------------------------------------------------------------|
-------------------------------------------------------------------------|
-2-2-2b----2---5-5-4---4-4-4-4--4/7---7--75--5/9b---9b---9----9-11p9----|
------------------------------------------------------------12--------12-|
-------------------------------------------------------------------------|
-------------------------------------------------------------------------|

------------------------------------------------------------8------8----|
--------------------------------8b-----------------------8b---8b--------|
-9---------------7b----7-7b---5-----------7b---7--7---5--------------7b-|
---12p10----------------------------------------------------------------|
---------12-------------------------------------------------------------|
------------------------------------------------------------------------|
A.H.
--------------5------------------------------------------------------------|
----------5b-----8--5------------------------------------------------------|
-7--7--5--------------7b-r-p5------------------------------------7hb---r-7-|
------------------------------7--7--5--------------------------------------|
---------------------------------------7-6-5-3-5-3-5b-5p3---5b-------------|
----------------------------------------------------------5----------------|

-------------5-8---------------8------------------8-10---------------------|
-------8b---------8b----r-b------8b-r--5--10b-----------10b--10b--10b-r--8-|
-7-7-5---------------------------------------------------------------------|
---------------------------------------------------------------------------|
---------------------------------------------------------------------------|
---------------------------------------------------------------------------|

-----------------------------------------------------------------------------|
-13b---r--b--13-12-13-12h13p12p10----12----10h12p0----10-----10--------------|
----------------------------------12----12---------12----12b----12-9---------|
---------------------------------------------------------------------12br-10-|
-----------------------------------------------------------------------------|
-----------------------------------------------------------------------------|

--------------------------------------------------------------------------|
--------------------------------------------------------------------------|
--------------------------------------------------------------------------|
----12----12--------------------------------------------------------------|
-12----12----12p10----10------------------------------5b-r-p3-5-5-3-5--/8-|
-------------------12----108---10hb---r--8-3hb----5----------------------|

-----------------------------------------------------------------------------|
--------------------------------------------------------10h12p10----10-12-13-|
---------------7----9------7--9-10/12-9h10p9----9-10-12----------12----------|
-7-10-9h10p9p7---10-----10-------------------12------------------------------|
-----------------------------------------------------------------------------|
-----------------------------------------------------------------------------|

-10----12----10-12-13--12h13p12p10----10--13b----r-b---13--12-13-12h13p12p10-|
----13----13-----------------------13----------------------------------------|
-----------------------------------------------------------------------------|
-----------------------------------------------------------------------------|
-----------------------------------------------------------------------------|
-----------------------------------------------------------------------------|

-12~-----10--13--12h13p12p10-1210p8----10----7h8h10p8p7-8-------------------------|
-------------------------------------10----10---------------12b---r-12--12--10--10-|
-----------------------------------------------------------------------------------|
-----------------------------------------------------------------------------------|
-----------------------------------------------------------------------------------|
-----------------------------------------------------------------------------------|

-----------10------------12-15-15-------------------------/15---12-----------|
-10--13b------13p10h13b-----------15br-p13-15-12hb--r--10------------16--15---|
------------------------------------------------------------------------------|
------------------------------------------------------------------------------|
------------------------------------------------------------------------------|
------------------------------------------------------------------------------|

-----12-15-13h15p13p12----13----12h13p12----12------12-------------------------|
-15b-------------------15----15----------15----13-15---15p13-15p13-12----13----|
----------------------------------------------------------------------14----14-|
-------------------------------------------------------------------------------|
-------------------------------------------------------------------------------|
-------------------------------------------------------------------------------|

----------------------------15---------|
-12h13p12----12-13-15-15b------15b-----|
----------14---------------------------|
---------------------------------------|
---------------------------------------|

4.OUTTA GET ME

---------|-----------------|---------------|----------------------------------|
---------|-----------------|---------------|----------------------------------|
--0--3-0-|--0--------------|-5--3---0-3-0--|----------------------------------|
--0--3-0-|--0-----3-5-5----|-5--3---0-3-0--|----------------------------------|
---------|--------3-5-5----|-3--1----------|----------------------------------|
---------|-----3---------3-|---------------|----------------------------------|
__play 3 times___________________ the solo is below

------------------------|----15--------------17b19-|------17b19-17b19-17b19|--|
--18b20---18b20---18b20-|-------18b20rp15----------|------17----17----17---|--|
------------------18b19-|-----------------17-------|-----------------------|--|
------------------------|--------------------------|-----------------------|--|
------------------------|--------------------------|-----------------------|--|
------------------------|--------------------------|-----------------------|--|


-17b18---17b18--------|--------------------------------|---|-----|------------|
-17b18---17b18----17--|-17b19--17b19---17b19p15-----15-|---|-----|------------|
------------------17--|-17b19--17b19---17b19p15-----15-|---|-----|------------|
----------------------|-------------------------17-----|---|---5-|------------|
----------------------|--------------------------------|---|---5-|------------|
----------------------|--------------------------------|---|---3-|------------|
verse

---------------|-----------------|------------|-----------------|-------------|
---------------|-----------------|------------|-----------------|-------------|
---------------|-5---5---3-0-3---|------------|-------------3---|-------------|
---5-------5---|-5---5---3-0-3-5-|--3-5-----5-|-----5-------3-5-|-------------|
---5-------5---|-3-3-3-3-1-----5-|--3-5-----5-|-----5---------5-|-------------|
-3---3-3-3---3-|---------------3-|------3-3---|-3-3---3-3-3---3-|-------------|


---------------|------------------|-------------|------------|---------------|
---------------|------------------|-------------|------------|-----7-----5---|
---------------|--5---5---3-0-3---|-------------|-5---4--5-6-|-7---7-----5---|
---5-------5---|--5---5---3-0-3-5-|---3-5-----5-|-5---4--5-6-|-7-0---0-0--00-|
---5-------5---|--3-3-3-3-1-----5-|---3-5-----5-|-3---2--3-4-|-5-------------|
-3---3-3-3---3-|----------------3-|-------3-3---|------------|---------------|
-

---------------------|---------------|----------------------------------------|
-3-----1--0--1p0-----|---------------|----------------------------------------|
-4-----2---------2p0-|-----5------3--|-x2-------------------------------------|
---0-0---------------|-----5------3--|----------------------------------------|
---------------------|-33333--33333--|----------------------------------------|
---------------------|---------------|----------------------------------------|
play the last 3 bars above 4 times then intro riff for chorus

-----------------------------|-----------------------------|------------------|
--17b18--17b18--17b18--17b18-|-17b18--17b18-17-15-17-------|------------------|
--17b19--17b19--17b19--17b19-|-17b19--17b19-17-15-17-------|------------------|
-----------------------------|-----------------------17-15-|------------------|
-----------------------------|-----------------------------|------------------|
-----------------------------|-----------------------------|------------------|


----------------------------------------|-------------------------------------|
-17--17-15b16--------17--17-15b16-------|-------------------------------------|
-17--17-15b16--------17--17-15b16-------|-------------------------------------|
---------------17-15--------------17-15-|-------------------------------------|
----------------------------------------|-------------------------------------|
----------------------------------------|-------------------------------------|
x2 play first 2 bars then go below

--------------------------|-----------------------------15-------18b20-|------|
-18b20--18-r15--18--15-18-|-17b18p15----15--------18b20----18p15-------|------|
--------------------------|----------17---15---------------------------|------|
--------------------------|-----------------17-15----------------------|------|
--------------------------|--------------------------------------------|------|
--------------------------|--------------------------------------------|------|


---18-----181715----|-----18-----------------|-------15------------------|----|
-----------------18-|-17---------------------|----------18---------------|----|
--------------------|--------17b19p15-15--17-|-17b19-------17b19--15--17-|----|
--------------------|------------------------|---------------------------|----|
--------------------|------------------------|---------------------------|----|
--------------------|------------------------|---------------------------|----|


-------------------------------------|---15---------15----|-------18-------|--|
----------------------18b20p0--15b17-|------15rb17-----15-|-18b20----18b19-|--|
-17b19p15-17p15----------------------|--------------------|----------18b19-|--|
----------------17p15----------------|--------------------|----------------|--|
-------------------------------------|--------------------|----------------|--|
-------------------------------------|--------------------|----------------|--|
hold the last bend in the first bar above for the whole next bar.

----------------------------|-------------------|----------------------------|
-------18-18-18-------17b18-|-17b18-------------|----------------------------|
-17b19----------17r15-17b19-|-17b19----------17-|-17b18-17b18----17b18-17b18-|
----------------------------|----------17-17----|-------------19-------------|
----------------------------|-------------------|----------------------------|
----------------------------|-------------------|----------------------------|
do the same again here. all sorts of funny shit in these bends.

-------15----15------15--------|-------------------------|-15b17-15-15b17-12-|
-15b17----15----15------15rp13-|-15-15b17-13-15-13-------|-------------------|
-------------------------------|-------------------14-12-|-------------------|
-------------------------------|-------------------------|-------------------|
-------------------------------|-------------------------|-------------------|
-------------------------------|-------------------------|-------------------|
and again here.

-15b17--15b17rp12-----------------|---------------------------------------|---|
------------------15b17-15b17rp13-|-1313----------------------------------|---|
----------------------------------|------1412141412----1212---------------|---|
----------------------------------|-----------------14------1412121210----|---|
----------------------------------|------------------------------------12-|---|
----------------------------------|---------------------------------------|---|
these notes are v.fast!!!.

---------------------------|---------------|----------|---------------|--------|
---------------------------|---------------|--2b3r--0-|-5b6r-3--------|--------|
---------------------------|-12------------|--2b3r--0-|-5b6r-3--------|--------|
-10b11---------------10-12-|-1412-10-12/--|----------|---------0-3-0-|---------|
--------12p10-12--12-------|---------------|----------|---------0-3-0-|--------|
---------------------------|---------------|----------|---------------|--------|


---------|-------------------|------------------------------------------------|
-2b3r--0-|-12b13r--10--------|------------------------------------------------|
-2b3r--0-|-12b14r--10--0-3-0-|------------------------------------------------|
---------|-------------0-3-0-|-x2---------------------------------------------|
---------|-------------------|------------------------------------------------|
---------|-------------------|------------------------------------------------|
last four bars are repeated

---------------|--------13-----|----------------|-------------|------------|--|
--12-----15----|-13-----16b18--|--12-----15-----|-13-----10---|-12----15---|--|
--14b16--17b19-|-15b17---------|--14b16--17b19--|-15b17--13b15|-14b16-17b19|--|
---------------|---------------|----------------|-------------|------------|--|
---------------|---------------|----------------|-------------|------------|--|
---------------|---------------|----------------|-------------|------------|--|


---------13------|--------------|-13------15-----|----------------------------|
-13------16b18---|-12-----15----|-16b18---18b20--|----------------------------|
-15b17-----------|-14b16--17b19-|----------------|----------------------------|
-----------------|--------------|----------------|----------------------------|
-----------------|--------------|----------------|----------------------------|
-----------------|--------------|----------------|----------------------------|
improvise the ending solo..slash did!. jam in G dorian.

------------------------------------------------------------------------------|
------------------------------------------------------------------------------|
------------------------------------------------------------------------------|
------------------------------------------------------------------------------|
------------------------------------------------------------------------------|
------------------------------------------------------------------------------|


5.MR.BROWNSTONE

Figure 1 (intro noise)
e|---------------------------------|---------------------------------|
b|---------------------------------|---------------------------------|
g|---------------------------------|---------------------------------|
d|---------------------------------|---------------------------------|
a|-x-x-x-x-x-x-x-x-x-x-x---x---x-x-|-x-x-x-x-x-x-x-x-x-x-x---x---x-x-|
e|-x-x-x-x-x-x-x-x-x-x-x---x---x-x-|-x-x-x-x-x-x-x-x-x-x-x---x---x-x-|
1 e + a 2 e + a 3 e + a 4 e + a 1 e + a 2 e + a 3 e + a 4 e + a

e|---------------------------------|---------------------------------|
b|---------------------------------|---------------------------------|
g|---------------------------------|---------------------------------|
d|---------------------------------|---------------------------------|
a|---------------------------------|---------------------------------|
e|-12



Get this song at amazon.com      Ebay     Ringtones Ringtones  


Learn to play: Songwriting, Piano, Harmonica, Guitar
More Guns 'N' Roses lyrics available at Muzikum

Related Guns N Roses Tabs

Get In The Ring tabs
Knocking On Heavens Door Solo tabs
Out Ta Get Me tabs
Gnr Lies tabs
Live Tabs tabs
Welcome To The Jungle tabs
Sweet Child Of Mine Intro tabs
Bad Obsession tabs
One In A Million tabs
Nightrain tabs
Paradise City Solo tabs
November Rain Acoustic Tab tabs
Since I Don't Have You tabs
Only Woman Bleed tabs
Patience (lots Of Versions) tabs
Dont Cry tabs
Don Damm Me tabs
Back Off Bitch2 tabs
Paradise City tabs
Live And Let Die Solo tabs


Guitar Tabs









All tabs are property and copyright of their owners. All tabs provided for educational purposes only. Privacy Policy, DMCA