Guns N Roses

Anything Goes Bass Tabs



More from Guns N Roses

Guns N Roses Tabs
Guns N Roses Chords
Guns N Roses Bass
Guns N Roses Lyrics



Tabbed By: Garth Rhodes
Tuning: Half a step down on all strings (Like every other GnR song)
G-F#, D-C#, A-G#, E-D#

s = slide
h = hammer-on
p = pull-off
H = hold/bend/ring

INTRO:
F#---4-4--6--------------------------------0-0-0-0---
C#---5-5--7---------------4--5--6--------------------
G#---------------------------------------------------
D#--------------------0-2--3--4--5-5-5s1-------------

F#---------------------------------------5--5--
C#---------------------------------------------
G#--------------------------0-0-0----0-3--3----
D#----5-5-5-s-1-------0-2-3--------------------

F#-----------------------------------0-0-0-0---
C#---------------------------------------------
G#--------------------------0-0-0--------------
D#----5-5-5-s-1-------0-2-3--------------------

F#---------------------------------2H----------
C#---------------------------------------------
G#--------------------------0-0-0--------------
D#----5-5-5-s-1-------0-2-3--------------------

F#------------------------------------------------------------------
C#------------------------------2-3-----------------------------2-3-
G#--0-0-3-0-0-0-3-0-0-0-3-0-0-0-----0-0-3-0-0-0-3-0-0-0-3-0-0-0-----
D#------------------------------------------------------------------

F#------------------------------------------------------------------
C#------------------------------2-3-----------------7--5------------
G#--0-0-3-0-0-0-3-0-0-0-3-0-0-0-----0-0-3-0-0-0-3-0-------7--3-2----
D#---------------------------------------------------------------3--

VERSE 1:
F#---------------------------------------------------
C#---------------------------------------------------
G#---------2-4----------5-4---------2-4----------5-0-
D#--0--2-3------0-0-2-3------0--2-3------0-0-2-3-----

F#---------------------------------------------------
C#---------------------------------------------------
G#---------2-4----------5-4---------2-4--------------
D#--0--2-3------0-0-2-3------0--2-3------0-0-2-3-0-1-

CHORUS 1:
F#------------------------------------------------
C#------------------------------------------------
G#---------3-4-5---5--0-2--0-0--0-0-0-0-0h3p0h3p0-
D#--3--3-3----------------------------------------

F#---------------------------------------------
C#---------------------5-----------------------
G#---------3-4-5---5-----7-5-7--5-4--2h4p2-----
D#--3--3-3----------------7----------------3H--

VERSE 2

CHORUS 2:
F#------------------------------------------------
C#------------------------------------------------
G#---------3-4-5---5--0-2--0-0--0-0-0-0-0h3p0h3p0-
D#--3--3-3----------------------------------------

F#--------------------------2-2-2-2-2--2--0-------
C#------------------------------------------2-----
G#---------3-4-5---5--0-2--0-0-0-0-0-0--------0---
D#--3--3-3----------------------------------------

F#------------------------------------------------
C#------------------------------------------------
G#---------3-4-5---5--0-2--0-0--0-0-0-------------
D#--3--3-3-----------------------------0-1-0-2-0-3

F#------------------------------------------------
C#------------------------------------------------
G#--------5--5---2H----2H----2s14H------2-3-4-5---
D#--3--3------------------------------------------

WAH SOLO:
F#-----------------------------------------------
C#-------------------------------------------5-5-
G#--7-7-0h5h6--7-7-0-55-66--7-7-0-5-6--7-7-7--7--
D#-----------------------------------------------

F#--------------------------------------------------
C#-0------------------------------------------5-6-7-
G#--7-7-0h5h6--7-7-0-55-66--7-7-0-5-6--7s1----------
D#-----------------------------------------0-3-4-5--

F#--------------------------------------------------------------------
C#--------------------------------------------------------------------
G#----------------5-0-------------5-5---------------------------------
D#--7-7-77-7-7-5h7---7-7-5h7-5-7p5-5-5h7-7-5-6-7-7-0-55-66-7-7-0-5-6-7

F#-----------------------------------------
C#-----------------------------------------
G#------------------3-4-5--5-0-3-0---------
D#--7--6--5--4-3--3------------------------

F#----------------------2--0h1h2--1h2-0---------
C#--------------------------------------2-0-----
G#---------3-4-5--5-0-3---------------------2-0-
D#--3--3-3--------------------------------------

CHORUS 3:
F#------------------------------------------------
C#------------------------------------------------
G#---------3-4-5---5--0-2--0-0--0-0-0-0-0h3p0h3p0-
D#--3--3-3----------------------------------------

F#--------------------------2-2-2-2-2--2--0-------
C#------------------------------------------2-----
G#---------3-4-5---5--0-2--0-0-0-0-0-0--------0---
D#--3--3-3----------------------------------------

F#------------------------------------------------
C#------------------------------------------------
G#---------3-4-5---5--0-2--0-0--0-0-0-------------
D#--3--3-3-----------------------------0-1-0-2-0-3

F#--------------------------------------
C#--------------------------------------
G#--------5--5-0-3-0-----------1s12s1---
D#--3--3--------------------------------

F#-----------------------
C#-----------------------
G#--------5--5-0-3-0-----
D#--3--3-----------------

"Anything goes tonigh-ee-ite..."
F#--------------------------------------------------
C#--------------------------------------------------
G#--0--0--0--0--0--0--0--0--0--0s121212121212121212-
D#--------------------------------------------------

"Whoa-oh-ah-o-awww-oh...."
F#------------------------------------------------------------------
C#------------------------------------------------------------------
G#--0-0-3-0-0-0-3-0-0-0-3-0-0-0-----0-0-3-0-0-0-3-0-0-0-------------
D#------------------------------0-3---------------------2-0-3-0-2-0-

F#------------------------------------------------------------------
C#------------------------------------------------------------------
G#--0-0-3-0-0-0-3-0-0-0-3-0-0-0-----0-0-3-0-0-0-3-0s1212121212121212
D#------------------------------0-3---------------------------------

ENDING:
F#------------------------
C#------------------------
G#---------5H-------------
D#--3H----------------5s1-



Get this song at amazon.com      Ebay     Ringtones Ringtones  


Learn to play: Songwriting, Piano, Harmonica, Guitar
Also available at Muzikum: Guns 'N' Roses - Anything Goes lyrics

Related Guns N Roses Bass Tabs

Garden Of Eden (the Insane Version) bass
Coma bass
Garden Of Eden (the Normal Version) bass
Youre Crazy bass
I Used To Love Her bass
Since I Don't Have You bass
Double Talkin Jive bass
Don' Cry bass
It s so easy bass
Get In The Ring bass
Estranged bass
Think About You bass
Garden Of Eaden bass
Don't Cry bass
Attitude bass
Sweet Child O Mine Intro bass
November Rain bass
New Rose bass
Shotgun Blues bass
Aint It Fun bass


Guitar Tabs









All tabs are property and copyright of their owners. All tabs provided for educational purposes only. Privacy Policy, DMCA

Online converter - videoconverter.com