Guns N Roses

Aint It Fun2 Tabs



More from Guns N Roses

Guns N Roses Tabs
Guns N Roses Chords
Guns N Roses Bass
Guns N Roses Lyrics

E----------------------------------------------------------------------


B---------------------------------------------------------11----11-----
G-------------------1-3-----------3-----6-8-6-8----13--------13--------
D---------------1-3----------------------------------------------------
A-1-----1-3-4----------------------------------------------------------
E----------------------------------------------------------------------

E----------------------------------------------------------------------
B-11----14--16--18-18----18/16--14---16--14b-14b--9--11----------------
G----------------------------------------------------------------------
D----------------------------------------------------------------------
A----------------------------------------------------------------------
E----------------------------------------------------------------------


I think this sounds almost perfect.....I only did the first little bit cos I am supposed to be working, but never mind....if anyone can do the rest for me to create the most perfect version I have found yet, please email me:  mr_oxxide@hotmail.com
Get this song at amazon.com      Ebay     Ringtones Ringtones  


Learn to play: Songwriting, Piano, Harmonica, Guitar
More Guns 'N' Roses lyrics available at Muzikum

Related Guns N Roses Tabs

Heartbreak Hotel tabs
Youre Crazy (Acoustic) tabs
Noevember Rain Acoustic tabs
Welcome To The Jungle tabs
Dont Cry 100 % tabs
Dont Damn Me tabs
Knocking On Heavens Door Solo tabs
Chinese Democracy Intro tabs
I Used To Love Her tabs
Patience Intro tabs
Outta Get Me tabs
Welcome To The Jungle Solo tabs
Use Your Illusion tabs
Paradise City Solo tabs
Whole Lotta Rosies tabs
You Cant Put Your Arms tabs
Always On The Run tabs
Live And Let Die (main Riff) tabs
Slash Licks tabs
Sweet Child Of Mine Intro 100% Correct tabs


Guitar Tabs









All tabs are property and copyright of their owners. All tabs provided for educational purposes only. Privacy Policy, DMCA