Guitar Lessons

Guitar Lessons - G Major guitar tab

1st position

-----3------

-----0------

-----0------

-----0------

-----2------

-----3------

2nd position

---3--------

---3--------

---4--------

---5--------

---5--------

---3--------

Get this song at:  amazon.com sheetmusicplus.com

Share your thoughts

0 Comments found