Green Day

Green Day - Basket Case Standard Tuning (simple) guitar tab

Artist: Green Day

Title: Basket case

Guitarist: Billie Joe Armstrong

Album: Dookie And International superhits

Standard tuning

Figure out rhythm (sorry too lazy)

Palm mute

-----------------------------------------------

-----------------------------------------------

--8---------------8----------------------------

--8--8--10--5--6--8--8------------------------- x2

--6--8--10--5--6--6--8-------------------------

-----6--8---3--4-----6-------------------------

Palm-mute-all-up-to-here---v

-----------------------------------------------

-----------------------------------------------

--------8--------------------8--6--5-----------

--6--8--8-----x2 then--6--8--8--6--5-----------

--6--8--6--------------6--8--6--4--3-----------

--4--6-----------------4--6--------------------

-----------------------------------------------

-----------------------------------------------

-------------8---------------------------------

--6--8--x1---8--8--10--8---x2------------------

--6--8-------6--8--10--8-----------------------

--4--6----------6--8---6-----------------------

-----------------------------------------------

-----------------------------------------------

--8---------------8----------------------------

--8--8--10--5--6--8--8------------------------- x2

--6--8--10--5--6--6--8-------------------------

-----6--8---3--4-----6-------------------------

-----------------------------------------------

-----------------------------------------------

--------8--------------------8--6--5-----------

--6--8--8-----x2 then--6--8--8--6--5-----------

--6--8--6--------------6--8--6--4--3-----------

--4--6-----------------4--6--------------------

palm mute

v

-----------------------------------------------

-----------------------------------------------

-------------8---------------------------------

--6--8-x1----8--8--10--8---x4--6--8------------

--6--8-------6--8--10--8-------6--8------------

--4--6----------6--8---6-------4--6------------

-----------------------------------------------

-----------------------------------------------

--8---------------8----------------------------

--8--8--10--5--6--8--8------------------------- x2

--6--8--10--5--6--6--8-------------------------

-----6--8---3--4-----6-------------------------

Palm-mute-all-up-to-here---v

-----------------------------------------------

-----------------------------------------------

--------8--------------------8--6--5-----------

--6--8--8-----x2 then--6--8--8--6--5-----6--8--

--6--8--6--------------6--8--6--4--3-----6--8--

--4--6-----------------4--6--------------4--6--

-----------------------------------------------

-----------------------------------------------

-----------------8------------------8----------

--5--6--5--6--5--8--8---x4 then--6--8--8-------

--5--6--5--6--5--6--8------------6--6--8-------

--3--4--3--4--3-----6------------4-----6-------

i think this is 100% an ya dont have to tune it down like most others

but it will sound higher in some parts but it is the right notes

but any other mistakes email me them on punx_rock05@homail.co.uk

cheers

Get this song at:  amazon.com sheetmusicplus.com

Share your thoughts

0 Comments found