Green Day

Warning Bass Tab Bass Tabs



More from Green Day

Green Day Tabs
Green Day Chords
Green Day Bass
Green Day Lyrics




Here is the tab

VERSE
G-----------------0-0----------------
D---------0-0-2-4-----4-2-0-0--------
A-0-0-2-4---------------------4-2----
E------------------------------------

BRIDGE
G------------------------------------
D------------------------------------
A-0-4-0---0--0-0-4-0---0-------------
E-------3------------3---------------



Get this song at amazon.com      Ebay     Ringtones Ringtones  


Learn to play: Songwriting, Piano, Harmonica, Guitar
More Green Day lyrics available at Muzikum

Related Green Day Bass Tabs

The Best Thing In Town bass
Stuart And The Ave. Corresct bass
East 12th Street bass
Chump(correct Solo) bass
Desensitized bass
Welcome To Paradise bass
Brat bass
Strangeland bass
Going To Pasalaqua bass
Brain Stew (perfect) bass
Rotting bass
Holiday Correct bass
City Of The Damned bass
Good Ridance bass
She's A Rebel (perfect) bass
Prothetic head bass
Road To Acceptance bass
Waiting1 bass
Sick bass
2000 Light Years Away bass


Guitar Tabs









All tabs are property and copyright of their owners. All tabs provided for educational purposes only. Privacy Policy, DMCA