Green Day

Good Riddance (time Of Your Life) Bass Tabs



More from Green Day

Green Day Tabs
Green Day Chords
Green Day Bass
Green Day Lyrics



A really nice easy tab 2 play wif a acoustic guitar, but play very softly

Verse
G|--------------------------------------|
D|--------------------------------------|
A|--------------------3-33-333-5-55555--|
E|--3-33-333-3-33-3333------------------|

Intro into Chorus
G|---------------------------------------|
D|---------------------------------------|
A|--7-77-777-5-55-555-3-33-333-----------|
E|-----------------------------3-33-333--|

Chorus
G|---------------------------------------------------------|
D|---------------------------------------------------------|
A|-----------------------------------------------3-33-333--|
E|--0-00-000-3-33-333-0-00-000-3-33-333-0-00-000-----------|



Get this song at amazon.com      Ebay     Ringtones Ringtones  


Learn to play: Songwriting, Piano, Harmonica, Guitar
Also available at Muzikum: Green Day - Good Riddance (Time Of Your Life) lyrics

Related Green Day Bass Tabs

Geek Stink Breathe bass
I Want To Be On Tv bass
Scumbag bass
Paradise bass
Ha Ha You're Dead bass
Rock And Roll Girlfriend bass
Give Me Novicane bass
Welcome To Paradise Bass Solo bass
Having A Blast bass
Warning bass
Holiday Bass Solo Riff bass
When I Came Around bass
Holiday (easy) bass
My Generation bass
Longveiw (main Riff) bass
Nightlife bass
Jesus Of Suburbia Bass Tab bass
Shenanigans Album + Lyrics bass
Homecoming All 5 Parts + Lyrics bass
Ha Ha Your Dead, Out Of The Book bass


Guitar Tabs









All tabs are property and copyright of their owners. All tabs provided for educational purposes only. Privacy Policy, DMCA