Green Day

Dont Want To Fall In Love Bass Tabs



More from Green Day

Green Day Tabs
Green Day Chords
Green Day Bass
Green Day Lyrics

Date:  4 Jan 02 00:49:34 CST
From: Jorge Gonzalez 
Subject: g/green_day/dont_want_to_fall_in_love.btab

Song: Don't Want To Fall In Love
Group: Green Day
Album: Geek Stink Breath Single (1995)
Lyrics: Billie Joe Armstrong
Music: Green Day

Well, this song is a little tricky. It's really fast, and I highly recommend
to listen to the CD. Because of the fastness, you have to combine upstrokes 
and downstrokes, with palm-muting, this means you have to press and release
the string while you're playing in order to get the correct sound. 
I hope you enjoy it!

Transcribed and submitted by Jorge Gonzalez
Any doubts or suggestions -----> jw55@elsitio.com

Tune down a half step (Eb Ab Db Gb)

VERSE
Gb-----------------------------------------
Db-------------------------------------*---	*<--Just the last time
Ab--7-7-7-7-7--7-7--7-7-7-7-7-7-7--7--7/---
Eb-----------------------------------------

CHORUS
Gb------------------------------------------------------------------------
Db------------------------------------------------------------------------
Ab-----------------------------------7-7-7-7-7-7-7--7-7--7-7-7-7-7-7--7-7-
Eb-5-5-5-5-5--5-5--5-5-5-5-5-5--5-5---------------------------------------

Gb------------------------------------------------------------------------
Db------------------------------------------------------------------------
Ab-----------------------------------------------------7-7-7-7-7-7-7--7-7-
Eb---7-7-7-7-7-7--7-7----0--5-------------------0--5----------------------
...it may sound a little rough don't want to fall in love		
									 
FILL1			
Gb------------------------ 
Db-----------6-7-9-7-6---- 						 
Ab--7-7-7--7-----------7--
Eb------------------------						    
									 
OUTRO										
Gb------------------------------------------------------------------------
Db------------------------------------------------------------------------
Ab--7-7-7-7-7--7-7---------------------------------------7-7-7-7-7-7--7-7-
Eb-----------------7-7-7-7-7-7--7-7--0--5-----------0--5------------------

Gb------------------------------------------------------------------------
Db------------------------------------------------------------------------
Ab--7-7-7-7-7--7-7---------------------------------------7-7-7-7-7-7--7-7-
Eb-----------------7-7-7-7-7-7--7-7--0--5--5--5--5--0--5------------------

Gb---------------------------------------------------------
Db---------------------------------------------------------
Ab--7-7-7-7-7-7--7-7--7-7-7-7-7-7--7-7--7-7-7-7-7-7--7-(7)-
Eb---------------------------------------------------------
						      end.
VERSE X 12
CHORUS
VERSE X 9
CHORUS
FILL1
VERSE X 8 (solo part)
CHORUS
OUTRO
Get this song at amazon.com      Ebay     Ringtones Ringtones  


Learn to play: Songwriting, Piano, Harmonica, Guitar
Also available at Muzikum: Green Day - Dont Want To Fall In Love lyrics

Related Green Day Bass Tabs

Grouch bass
The Grouch bass
Blood, Sex And Booze Bass Tab bass
Walking Alone bass
80 bass
Babs Uvula Who bass
Holiday (perfect) bass
Good Ridance bass
Warning Bass Tab bass
Macy's Day Parade bass
The Best Thing In Town bass
Holiday [easier But Correct] bass
Scattered bass
F O D bass
Rotting bass
1000hours bass
Stuart And The Ave bass
Holiday(ever So Slightly Modified) bass
Stray Heart bass
When I Came Around bass


Guitar Tabs









All tabs are property and copyright of their owners. All tabs provided for educational purposes only. Privacy Policy, DMCA