Green Day

Body Odor Tabs



More from Green Day

Green Day Tabs
Green Day Chords
Green Day Bass
Green Day Lyrics

---6----------6-----------6----------6-----------6---------6-----------
---3----------3-----------3----------3-----------3---------3-----------
-------------------------0-------------------0--------------------0----
-------------------16------------------------------------------24------
-----------------------------------------------------------------------


-1------2-------3-------4-------5-------6-------7------8--------9------
------3-------1--------6-----1--3-------------18----------5--5---5---5-
-----------------------------------------------------------------------
-----------------------------------------------------------------------
-----------------------------------------------------------------------
11111111111111111111111111333333333333333333333333335555555555555555555
Get this song at amazon.com      Ebay     Ringtones Ringtones  


Learn to play: Songwriting, Piano, Harmonica, Guitar
Also available at Muzikum: Green Day - Body Odor lyrics

Related Green Day Tabs

Missing You tabs
Reject tabs
Takeback tabs
Lazy Bones tabs
Havin A Blast And Lyrics tabs
Extraordinary Girl tabs
Wake Me Up When September Ends (acoustic Chords) tabs
Haushink tabs
Jackass tabs
DUI tabs
All By Myself {hidden Track} tabs
Troubled tabs
Christie Road tabs
Good Riddence tabs
Tired Of Waiting For You tabs
16 Intro tabs
Jesus Of Suburbia (subsection) tabs
I Fought The Law tabs
Dont Leave Me tabs
The Death Of St Jimmy tabs


Guitar Tabs









All tabs are property and copyright of their owners. All tabs provided for educational purposes only. Privacy Policy, DMCA