Grateful Dead

Grateful Dead - Wheel guitar tab

Wheel, The

Garcia

(Garcia/Hunter)

Last Updated 02/16/97

General Rules On Chord Charts

The C Chord

A Common Intro Riff

C

G C

The wheel is turning and you can't slow down,

G C

You can't let go and you can't hold on,

G C

You can't go back and you can't stand still,

F Bb C

If the thunder don't get you then the lightning will.

F Bb C

Won't you try just a little bit harder,

F Bb C

Couldn't you try just a little bit more?

F Bb C

Won't you try just a little bit harder,

F Bb C

Couldn't you try just a little bit more?

G C

Round, round robin run around,

G D

Got to get back to where you belong,

G

Little bit harder, just a little bit more,

D G

Little bit further than you gone before.

The wheel is turning and you can't slow down,

You can't let go and you can't hold on,

You can't go back and you can't stand still,

If the thunder don't get you then the lightning will.

F Bb Bb F Bb Bb F Bb Bb C

C F

Small wheel turn by the fire and rod,

C F

Big wheel turnin' by the grace of God,

C F

Every time that wheel turn 'round,

C F

Bound to cover just a little more ground.

C

Bound to cover just a little more ground.

C F

The wheel is turning and you can't slow down,

C F

You can't let go and you can't hold on,

C F

You can't go back and you can't stand still,

F Bb C

If the thunder don't get you then the lightning will.

Won't you try just a little bit harder,

Couldn't you try just a little bit more?

Won't you try just a little bit harder,

Couldn't you try just a little bit more?

--------------------------------------------------------------------------------

The C Chord

(^) Slide Up () Slide Down (h) Hammer On (p) Pull Off (b) Bend

RA Tab Support Audio (16K)

MIDI Tab Support Audio (wheel.mid)

E---0--0----------------------------------------------------

B---1--1----------------------------------------------------

G---0--0----------------------------------------------------

D---2--0--0--0--0--0h2--------------------------------------

A---3--3----------------------------------------------------

E---3--3----------------------------------------------------

This is the way the C chord is played whenever it's "jammed" out on. The single notes are shown as single notes for emphasis. You can include other strings in the C chord while playing them, but keep the emphasis on them.

Return To Base

--------------------------------------------------------------------------------

A Common Intro Riff

(^) Slide Up () Slide Down (h) Hammer On (p) Pull Off (b) Bend

MIDI Tab Support Audio (wheel2.mid)

E-----------------------------------------------------------

B-----------------------------------------------------------

G------5------5^7-----5-------------------------------------

D----------5-------5----------------------------------------

A---3-------------------------------------------------------

E-----------------------------------------------------------

Get this song at:  amazon.com

Share your thoughts

0 Comments found