Grateful Dead

Grateful Dead - Us Blues guitar tab

e-----------------------------------|

b------------------------------2--2-|

g------------------------------2--2-|

d------------------------------2--2-|

a----------2/4--2--0----------------|

E--0--2--0-----------0--2--0--------|

e---------------------------------|

b--12b--12--11--------10-10--10---|

g---------------9--h11------------|

d---------------------------------|

a---------------------------------|

E---------------------------------|

NYCborn51Added by tabs-database.com and our distinguished partners

Get this song at:  amazon.com

Share your thoughts

0 Comments found