Grateful Dead

Grateful Dead - Sugaree guitar tab

Sugaree

Garcia

(Garcia/Hunter)

Last Updated 02/28/96

General Rules On Chord Charts

This version follows the originally recorded effort, except that the key

is changed from C to B

Intro

B E

When they come to take you down

B E

When they bring that wagon 'round

B E

When they come to call on you

B E

And drag your poor body down

F#m C#m

Just one thing I ask of you,

A E

Just one thing for me

B C#m

Please forget you knew my name,

A E

My darling Sugaree

B E

Shake it, shake it sugaree,

C#m A E

Just don't tell them that you know me

B E

Shake it, shake it sugaree,

C#m A E

Just don't tell them that you know me

You thought you was the cool fool

Never could do no wrong

You had everything sewed up tight.

How come you lay awake all night long?

Well in spite of all you gained

You still have to stand out in the pouring rain

One last voice is calling you

And I guess it's time you go

Well shake it up now Sugaree,

I'll meet you at the jubilee

And if that jubilee don’t come,

Maybe I’ll meet you on the run

(The very last time only)

C#m A E B

Just don't tell them that you know-oh me

--------------------------------------------------------------------------------

Intro

(^) Slide Up () Slide Down (h) Hammer On (p) Pull Off (b) Bend

RA Tab Support Audio (50K)

MIDI Tab Support Audio (sugaree.mid)

E---------------------0--0--0--0----------------------------

B---------------------0--0--0--0----------------------------

G---------------------1--1--2--1----------------------------

D---------------------2--2--2--2----------------------------

A-----2----2-2-0------2--2--2--2----------------------------

E-2h4----2-------4-2--0--0--0--0----------------------------

E----------------------0--0--0--0---------------------------

B----------------------0--0--0--0---------------------------

G----------------------1--1--2--1---------------------------

D--------4h6-4---------2--2--2--2---------------------------

A-----2--------6p4--2--2--2--2--2---------------------------

E-2h4------------------0--0--0--0---------------------------

Get this song at:  amazon.com

Share your thoughts

0 Comments found