Grateful Dead

Grateful Dead - St Of Circumstance guitar tab

St. Of Circumstance

Go To Heaven

(Weir/Barlow)

Last Updated 04/27/96

General Rules On Chord Charts

Intro

Verse Part

A G D

A A C Bm Bb

This must be heaven, tonight I cross the line.

A A C Bm

You must be the angel, I thought I might never find.

E A G F#m Bm

Was it you I heard singing, Oh while I was chasin' dreams.

F#m Bm F#m Bm

Driven by the wind, like the dust that blows around,

A G D A G D

And the rain fallin' down, but I never know.

Got to be heaven, cause here's where the rainbow ends.

If this ain't the real thing, then it's close enough to pretend.

When that wind blows, when the night's about to fall.

You can hear the silence call, it's a certain sort of sound,

Bb

Like the rain fallin' down.

Bridge

E D A B

Holes in what's left of my reason,

E D A B

Holes in the knees of my blues.

E D A B B

Odds against me been increasin', but I'll pull through.

E D A B

I never could read no road map,

E D A B

And I don't know what the weather might do.

E D A B

Hear that witch wind whine and see the dog star shine,

D C# B A Bb

I got a feeling there's no time to lose,

A A/G F#m G

No time to lose.

I never know. I don't never know, know, know.

Well it's been heaven, but even the rainbows will end.

Now my sails are fillin' and the wind is willin'.

And I'm as good as gone again.

I'm still walkin', so I'm sure that I can dance.

Just a Saint of Circumstance, just a tiger in a trance.

And the rain fallin' down, (rain fallin' down now).

Jerry Riff

Well, I never know now. Just don't know. Just don't know.

Listen, sure don't know what I going for,

(just don't never know).

But I'm gonna go for it for sure.

(maybe goin' on a dream).

Maybe goin' on a feelin', maybe goin' on a feelin'

--------------------------------------------------------------------------------

Intro

(^) Slide Up () Slide Down (h) Hammer On (p) Pull Off (b) Bend

RA Tab Support Audio (39K)

MIDI Tab Support Audio (stofc1.mid)

Bb

E-----------------------|---0-----3---2---------------------

B---5--------5--5--6--8-|---2-----0---3---------------------

G------7--7-------------|---2-----0---2---------------------

D-----------------------|---2-----0---0---2--4--------------

A-----------------------|---0-----2-------------------------

E-----------------------|---------3-------------------------

Return To Base

--------------------------------------------------------------------------------

Verse Part

(^) Slide Up () Slide Down (h) Hammer On (p) Pull Off (b) Bend

RA Tab Support Audio (67K)

MIDI Tab Support Audio (stofc2.mid)

E---------------0----------------0------0---------2--2-0---1

B---------------2-----3-4-5------2------1---------3------3-3

G---------------2-----4-5-6------2------0---------4--------3

D---------------2----------------2------2---------4--------3

A---------------0----------------0------3---------2--------1

E-----------------------------------------------------------

This must be heaven, tonight I cross the line

E------------------0----------------0-------------0-----2---

B------------------2-----3-4-5------2-------------1-----3---

G------------------2-----4-5-6------2-------------0-----4---

D------------------2----------------2-------------2-----4---

A------------------0----------------0-------------3-----2---

E-----------------------------------------------------------

You must be the angels I thought I might never find

E-------------------------------------0---------3-----------

B--3-----5^7--5-----------------------2---------0-----------

G-----4-------------------------------2---------0-----------

D-------------------------------------2---------0-----------

A-------------------------------------0---------2-----------

E-----------------------------------------------3-----------

Was it you I heard singin'

E---------------------------9-------------------7-----------

B---------------------------10-----10-----------7-----------

G---------------------------11---------11-------7-----------

D---------------------------11-------------11---9-----------

A---------------------------9-------------------9-----------

E-----------------------------------------------7-----------

Oh, while I was chasin' dreams

Driven by the wind

Like the dust that blows around

Return To Base

--------------------------------------------------------------------------------

Bridge

(^) Slide Up () Slide Down (h) Hammer On (p) Pull Off (b) Bend

RA Tab Support Audio (62K)

MIDI Tab Support Audio (stofc3.mid)

E D A B

E---0---------------------2-----0---------------------------

B---0---------------------3-----2---------------------------

G---1---------------------2-----2---------------------------

D---2---------------------0-----2---------------------------

A---2---------------------------0--------2---4---2----------

E---0-------------------------------------------------------

Holes in what's left of my reason

Holes in the knees of my blues

Odds against me been increasin'

**************************************************

Never could read no road map and I

Don't know...weather might do Hear that

Witch wind and see the dog star shine I got a

B

E-----------------2-----------------------------------------

B-----------------4-----------------------------------------

G-----------------4-----------------------------------------

D-----------------4-----------------------------------------

A-----------------2---------0--------4--2--0----------------

E------------------------------4--2-----------4--2----------

But I'll pull through

D C# B A Bb

E----2-------------4---2---2---1----------------------------

B----3-------------6---4---2---3----------------------------

G----2-------------6---4---2---3----------------------------

D----0-------------6---4---2---3----------------------------

A------------------4---2---0---1----------------------------

E-----------------------------------------------------------

feelin' there's no time to lose

Return To Base

--------------------------------------------------------------------------------

Jerry Riff

(^) Slide Up () Slide Down (h) Hammer On (p) Pull Off (b) Bend

RA Tab Support Audio (17K)

MIDI Tab Support Audio (stofc4.mid)

E-----------------------------------------------------------

B-----------------------------------------------------------

G--11---11-11-12---12-12-14---12----------------------------

D-----------------------------------------------------------

A-----------------------------------------------------------

E-----------------------------------------------------------

Get this song at:  amazon.com

Share your thoughts

0 Comments found