Grateful Dead

Grateful Dead - Slipknot guitar tab

#

slipknot by the grateful dead...

off of blues for allah

this is what i came up with for the main melody line, seems to be prett

accurate, this is just the beginning and very end..

slipkmot intro

e:8--\\----------------------------------|

B:10-\\---------5------------------------|

G:10-\\------6-----6---------------------|

D:-----6/8-----------8--6---------------|

A:--------------------------------10-8--|

E:-------------------------8--h11-------|

e:-----------------------------------------------|

B:--------------------------13-------------------|

G:--------------------11-14----14-11-------------|

D:--------10-8--10-13----------------13----------|

A:-8--h11-------------------------------12-9-----|

E:--------------------------------------------11-|

e:--------------------------------------------|

B:--------------------------------------------|

G:--------------------------------------------|

D:-12-10-------12-10--------------------12-10-|

A:-------10-13-------------12-10--10-13-------|

E:-------------------10-13--------------------|

e:--------------------------------------|

B:-------------15-----------------------|

G:-------13-16----16-13----13-----------|

D:-12/15----------------15----15-12-----|

A:----------------------------------14--|

E:--------------------------------------|

e:---------------17-14--------------------15-12----------------------------|

B:------------17-------17-15--17-14-------------15-12----------------------|

G:------14-16-----------------------16-14-------------14-11--12-9----------|

D:--/16------------------------------------------------------------12-9----|

A:----------------------------------------------------------------------12-|

E:-------------------------------------------------------------------------|

Am jam... outro..

e:-----------------------------------------|------------|-----------------|

B:-----------------------------------------|------------|-----------------|

G:-------9--7---------9--7-----------------|------------|-----------------|

D:-7--10-------7--10--------10-7-----9--7--|------------|-------11-9--7---|

A:--------------------------------10-------|------------|-12-10-----------|

E:-----------------------------------------|------------|-----------------|

--

-------8

Get this song at:  amazon.com sheetmusicplus.com

Share your thoughts

0 Comments found