Grateful Dead

Grateful Dead - Reckoning guitar tab

#

From izzo@4link.net Thu May 15 17:06:51 1997

Cc: acoustic@olga.net

"Bird Song"

by the Grateful Dead

off of Reckoning

as tabbed by Ryan Izzo

(CD time in parenthesis)

h = hammer on p = pull off

b = bend r = release bend

\ = slide ~ = let ring

Intro and Main Riff:

E

e|--------------------------------|

B|.------------------------------.|

G|---------------------2-----(1)--|

D|-------0--4---2-0-2----4-0--2---|

A|.-2--4---------------------(2)-.|

E|-(0:00)-------------------------|

Solo:

e|--5p3--------------------------------------------5p3-----------------------|

B|--------3-3---(2)-(2)----0h2-2--3p2--------------------3-3----2-2---2--3p2-|

G|------------not

audible----------------2--4-4------------------------------|

D|---------------------------------------------------------------------------|

A|---------------------------------------------------------------------------|

E|-(2:19)-----------------------------------------(2:25)---------------------|

e|----------------4-5-4--2---------------------------------------------------|

B|-2-------------------------it gets too fast

here---------------------------|

G|-----2----4-4--------------------------------------------------------------|

D|---------------------------------------------------------------------------|

A|---------------------------------------------------------------------------|

E|---------------(2:32)------------------------------------------------------|

Get this song at:  amazon.com sheetmusicplus.com

Share your thoughts

0 Comments found