Grateful Dead

Grateful Dead - Playing In The Band guitar tab

#

From Jason_Moore@voyager.umeres.maine.edu Sun May 4 09:45:38 1997

I figured this one out about christmas time but i forgot to mail it.

The whole song is in the key of D which makes the cords to it D G A-

your typical I IV V cord change.

The lead is played with your basic D chord- and the melody can be heard

on any bootleg or any version of playin'. Anyway-

Playing in the Band Grateful Dead

start with a D chord-

sl slide

h hold note

p pull off

h hammer on

s sustain

let the open D ring out (sl) (h) (p) p)(h (s)

E--------------------------------------------------4-->-5-----5---3----3

-2---0------------

B----------3---------------3--------------3-----------------------------

-------------3-----

G-------------2---------------2--------------2--------------------------

------------------

D-----0--------------0----------------0---------------------------------

-------------------

A-----------------------------------------------------------------------

---------------------

E-----------------------------------------------------------------------

---------------------

practice it - i think this is correct -

any comments are welcome

enjoy !

jason

Get this song at:  amazon.com sheetmusicplus.com

Share your thoughts

0 Comments found