Grateful Dead

Grateful Dead - King Solomons Marbles guitar tab

King Solomon's Marbles

Blues For Allah

(Lesh)

Last Updated 08/16/96

General Rules On Chord Charts

Stronger Than Dirt

Segment 1

Segment 2

Jam on Bm

Then an A

Then a Em7

Milkin' The Turkey

Segment 3

Land on A

Then to Em7

Jam on Bm

Jam on A

Then Em7

Segment 4

Segment 5

Jam On A

Jam on Em7

Then segments 1 & 2 again

Segment 6

--------------------------------------------------------------------------------

Segment 1

(^) Slide Up () Slide Down (h) Hammer On (p) Pull Off (b) Bend

RA Tab Support Audio (42K)

MIDI Tab Support Audio (ksm1.mid)

Repeat first two segments 4 times - Last segment last time only

Bm D Bm A Bm

E-------------------------|-------------------------|-------

B-------------------------|-------------------------|-------

G----------------------7--|-------------------------|-------

D----9---9p7--9--7--9-----|--9---9p7--9--7--9--7----|--7^9--

A-------------------------|-------------------------|-------

E-------------------------|-------------------------|-------

Return To Base

--------------------------------------------------------------------------------

Segment 2

(^) Slide Up () Slide Down (h) Hammer On (p) Pull Off (b) Bend

RA Tab Support Audio (49K)

MIDI Tab Support Audio (ksm2.mid)

Bm 3X A

E--------------|-----|-----------------------------14-11-12-

B-------10--9--|-----|------------------14---11-12----------

G--------------|-9---|-------14---11-12---------------------

D--7^9---------|---7-|-10-11--------------------------------

A--------------|-----|--------------------------------------

E--------------|-----|--------------------------------------

Em7

E--15-14-15-16-17-|---10^12--10-----------------------------

B-----------------|-------------11--------------------------

G-----------------|-----------------9----7^9--7--4----------

D-----------------|-----------------------------------------

A-----------------|---------------------------------7-------

E-----------------|-----------------------------------------

Return To Base

--------------------------------------------------------------------------------

Segment 3

(^) Slide Up () Slide Down (h) Hammer On (p) Pull Off (b) Bend

RA Tab Support Audio (26K)

MIDI Tab Support Audio (ksm3.mid)

F# F# E F# B B A B

E-----------------------------------------------------------

B-----------------------------------------------------------

G-----------------------------------------------------------

D-------------------------9---9---7---9---------------------

A---9----9----7---9-----------------------------------------

E-----------------------------------------------------------

Return To Base

--------------------------------------------------------------------------------

Segment 4

(^) Slide Up () Slide Down (h) Hammer On (p) Pull Off (b) Bend

RA Tab Support Audio (76K)

MIDI Tab Support Audio (ksm4.mid)

Break progression:

C#m | G#m | B G | E | A C#dim7 2X

Return To Base

--------------------------------------------------------------------------------

Segment 5

(^) Slide Up () Slide Down (h) Hammer On (p) Pull Off (b) Bend

RA Tab Support Audio (22K)

MIDI Tab Support Audio (ksm5.mid)

Bm

E-----------------------------------------------------------

B-----------------------------------------------------------

G-----------------------------------------------------------

D-----------9h11--9-------------6h7--6----------------------

A-----7h9-----------------7h9--------------7h9--------------

E-----------------------------------------------------------

Return To Base

--------------------------------------------------------------------------------

Segment 6

(^) Slide Up () Slide Down (h) Hammer On (p) Pull Off (b) Bend

RA Tab Support Audio (67K)

MIDI Tab Support Audio (ksm6.mid)

C#m B C#m (2X)

|---|---|---|---|---|

F#9 | X | X | |

|---|---|---|---|---|

| | X | X |

|---|---|---|---|---|

| | | | | |

|---|---|---|---|---|

| | | | | |

|---|---|---|---|---|

D-7 |---|---|---|---|---|

| | | | | |

|---|---|---|---|---|

| | | | | |

|---|---|---|---|---|

| | X | X |

|---|---|---|---|---|

| | | X | X

|---|---|---|---|---|

C#-7 |---|---|---|---|---|

| | | | | |

|---|---|---|---|---|

| | X | X |

|---|---|---|---|---|

| | | X | X

|---|---|---|---|---|

| | | | | |

|---|---|---|---|---|

C-7 |---|---|---|---|---|

| | X | X |

|---|---|---|---|---|

| | | X | X

|---|---|---|---|---|

| | | | | |

|---|---|---|---|---|

| | | | | |

|---|---|---|---|---|

E-----------------------------------------------------------

B-----------------------------------------------------------

G-----------------------------------------------------------

D----2---4---6---4---2---4---6---4--------------------------

A-----------------------------------------------------------

E-----------------------------------------------------------

E-----------------------------------------------------------

B---------------------3-----------------3-----------------3-

G---4---4p2--4--2--4------4p2--4--2--4------4p2--4--2--4----

D-----------------------------------------------------------

A-----------------------------------------------------------

E-----------------------------------------------------------

Get this song at:  amazon.com

Share your thoughts

0 Comments found