Grateful Dead

Grateful Dead - Fire On The Mountain (solo) guitar tab

Fire on the Mountain Solo from Shakedown Street Album

100% correct Please Rate

Standard Tuning (EADGBe)

-----------/11---12----11--12/14------------------12h14p12---11h12p11-----------------------------

/12-----------------------------------------------------------------------------------------------

--------------------------------------------------------------------------------------------------

--------------------------------------------------------------------------------------------------

--------------------------------------------------------------------------------------------------

--------------------------------------------------------------------------------------------------

14--13--14--13b(15)--12------------------12--14---------------------------------------------------

---------------------------14b(16)---------------14b(16)-----12---14-----12h14p12h14p12….---------

---------------------------------------------------------------------13---------------------------

--------------------------------------------------------------------------------------------------

--------------------------------------------------------------------------------------------------

--------------------------------------------------------------------------------------------------

-----------------14---16--------------------------------------------------------------------------

-12--14/16-----------------14b(16)-------14b(16)r14--12--14b(16)r14v~~~~--------------------------

--------------------------------------------------------------------------------------------------

--------------------------------------------------------------------------------------------------

--------------------------------------------------------------------------------------------------

--------------------------------------------------------------------------------------------------

--------------------------------------------------------------------------------------------------

12-14p12--14b(16)--14b(16)------14b(16)r14---12----14b(16)-------14b(16)r14-14-12-14-12----12-----

----------------------------------------------------------------------------------------13--------

--------------------------------------------------------------------------------------------------

--------------------------------------------------------------------------------------------------

--------------------------------------------------------------------------------------------------

--------------------------------------------------------------------------------------------------

--------------------------------------------------------------------------------------------------

13--11--------------------------------------------------------------------------------------------

-------------12/11---9----9v~~~~~~~~--------------------------------------------------------------

--------------------------------------------------------------------------------------------------

--------------------------------------------------------------------------------------------------

Played over B, A chord progression

Sounds real good with a wah-wah

Get this song at:  amazon.com sheetmusicplus.com

Share your thoughts

0 Comments found