Grateful Dead

Grateful Dead - Cold Rain And Snow guitar tab

GRATEFUL DEAD - SAN FRANCISCO'S GRATEFUL DEAD

tabbed by MaxxDaddy

Cold Rain & Snow

Intro:

----------------------------0-

----------------------------0-

----------------------------1-

----------------------------2-

-2-4-5---5-5---5-5--5-4-2-----

--------------------------0---

D E

Well she's coming down the stairs, combin' back her yellow hair

D E

And I ain't goin be treated this ol' way

E D D E

This ol' way-ay-ay-ay-ay-ay-ay-ay-ay-ay

D E

And I ain't goin be treated this ol' way

(repeat intro)

Well she went up to her room where she sang her faithful tune

Well I'm goin where those chilly winds don`t blow

winds don't blow-ow-ow-ow-ow-ow-ow-ow-ow-ow

Well I'm goin where those chilly winds don`t blow

Solo:

-------------------------------------------------------------------

-------12-------------------------------------12----------12-------

-11-13----11-14-----11-14-----11-14-----11-14----14-11-14----14-11-

-----------------14--------14--------14----------------------------

-------------------------------------------------------------------

-------------------------------------------------------------------

-----------------------------------------------------------------------------

-----------------------------------------------------------------------------

----------11-------------11--------------------------------------------------

----11-14----14----11-14----14-11-12-------12-------12-14-12---12-14-12--14~-

-14-------------14-------------------12-14----12-14----------14--------14----

-----------------------------------------------------------------------------

D

--------12----------------------------------12--------12------

--12-14----12--15----12-15----12-15----12-15--15-12-15--15-12-

------------------14-------14-------14------------------------

--------------------------------------------------------------

--------------------------------------------------------------

--------------------------------------------------------------

-----------------------------------------------------------------------------

----------14-------------14--------------------------------------------------

----13-16----16----13-16----16-13-14-------14-------14-16-14---14-16-14--16~-

-16-------------16-------------------14-16----14-16----------16--------16----

-----------------------------------------------------------------------------

-----------------------------------------------------------------------------

Well I married me a wife, she's been trouble all my life

Run me out in the cold rain and snow

Rain and snow-oh-oh-oh-oh-oh-oh-oh-oh-oh-oh-oh,

run me out in the cold rain and snow

Get this song at:  amazon.com sheetmusicplus.com

Share your thoughts

0 Comments found