Grateful Dead

Grateful Dead - Big Boss Man guitar tab

A

Big boss man, can't you hear me when I call?

D A

Big boss man, can't you hear me when I call?

E7 D A

You ain't so big, you just tall, that's just about all.

A

You got me working boss man,

A

A-workin' around the clock,

A

I want a little drink of whiskey,

A7

You sure won't let me stop.

D A

Callin’ Big boss man, can't you hear me when I call?

E D A

You ain't so big, you just tall, that's just about all.

I'm gonna get me a boss man,

One gonna treat me right,

I work hard in the daytime,

Sure get drunk at night.

E-----------------------------------------------------------|

B-------9----------9----------------------------------------|

G-----------------------------------------------------------|

D--8^9----9---8^9-----9---7---------------------------------|

A-----------------------------------------------------------|

E-----------------------------------------------------------|

E-----------------------------------------------------------|

B-------9----------9----------------------------------------|

G-------------------------9--6------7-----------------------|

D--8^9----9-----9-----9----------7-----7---5----------------|

A-----------------------------------------------------------|

E-----------------------------------------------------------|

E-----------------------------------------------------------|

B-----------------------------------------------------------|

G-----------------------------------------------------------|

D---------------7b--5---------------------------------------|

A---------5--------------------5----------------------------|

E--5-6-7----------------5-6-7-------------------------------|

tabs-database.com[http://www.tabs-database.com.com/] theres a link for the mp3 of this riffAdded by tabs-database.com and our distinguished partners

Get this song at:  amazon.com sheetmusicplus.com

Share your thoughts

0 Comments found