Grateful Dead

Touch Of Grey Solo Tabs



More from Grateful Dead

Grateful Dead Tabs
Grateful Dead Chords
Grateful Dead Bass
Grateful Dead Lyrics

Touch of Grey Solo
By The Grateful Dead
Standard Tuning


2:18 2:21
E|---7-------7----6-----6--7--7~~-------------------0-4--5---5-4~----|
B|------7--7---7-----7----------------------------5------------------|
G|------------------------------------4-/-6-6-6-6--------------------|
D|-------------------------------------------------------------------|
A|-------------------------------------------------------------------|
E|-------------------------------------------------------------------|


2:24
E|-------------------4----6----7-H-9--11~~----|
B|------------7-------------------------------|
G|---4-/-6--6---6-------6----6----------------|
D|--------------------------------------------|
A|--------------------------------------------|
E|--------------------------------------------|


2:27
E|---------12---12-----14-P-13-P-12-P-11--12-11-9----9----11~-----|
B|--8-H-9-----------------------------------------12---12---------|
G|----------------------------------------------------------------|
D|----------------------------------------------------------------|
A|----------------------------------------------------------------|
E|----------------------------------------------------------------|


2:30
E|--11--9------11--9----------------9----------------4--4--5---5--7---4- --|
B|---------12---------12--11--9--11---12~------------------------------- --|
G|-----------------------------------------8--6--4--------------------- --|
D|---------------------------------------------------------------------- --|
A|---------------------------------------------------------------------- --|
E|---------------------------------------------------------------------- --|


2:36
E|----------------------14-------------------------------11~----|
B|--------------11----------12-P-11-----12-P-11------12---------|
G|------9-/-11------11--------------11-----------13-------------|
D|--11----------------------------------------------------------|
A|--------------------------------------------------------------|
E|--------------------------------------------------------------|


2:39
E|-----------12~---------14---------16----16~~------|
B|------------------------------14------------------|
G|--12-H-13-----------14----------------------------|
D|--------------------------------------------------|
A|--------------------------------------------------|
E|--------------------------------------------------|


2:42
E|-------------------9--------------9--11---12~~----12--11-------------- --|
B|--11------11-H-12-----12--11--12--------------------------14--12--11~~ --|
G|------11-------------------------------------------------------------- --|
D|---------------------------------------------------------------------- --|
A|---------------------------------------------------------------------- --|
E|---------------------------------------------------------------------- --|


2:49
E|------------------------------------11---12~~---12--11---------------- --|
B|------12------11-H-12~--11--12--14----------------------14--12--11~~-- --|
G|--11------11---------------------------------------------------------- --|
D|---------------------------------------------------------------------- --|
A|---------------------------------------------------------------------- --|
E|---------------------------------------------------------------------- --|


2:55
E|-------------------------------11-------9----------------------------- |
B|--11--12--14---12--11--12--14-------10-----10-----10------------------ |
G|-----------------------------------------------9------9------11~~----- |
D|---------------------------------------------------------11----------- |
A|---------------------------------------------------------------------- |
E|---------------------------------------------------------------------- |

Rake
2:59 |----|
E|-------------------------------------------------------|
B|--11--12--11--9----------------10----------10--9-------|
G|-----------------11--13~---------------11--------------|
D|-----------------------------------11------------------|
A|-------------------------------------------------------|
E|-------------------------------------------------------|


3:03 3:06
E|-------------------------------------------------------|
B|--------------11-------11-----12---12-12--11~----------|
G|----------11-------------------------------------------|
D|--9-/-11----------11------11---------------------------|
A|-------------------------------------------------------|
E|-------------------------------------------------------|



Get this song at amazon.com      Ebay     Ringtones Ringtones  


Learn to play: Songwriting, Piano, Harmonica, Guitar
More Grateful Dead lyrics available at Muzikum

Related Grateful Dead Tabs

Same Thing tabs
China Cat Sunflower tabs
Oh Babe It Aint No Lie tabs
On The Road Again tabs
Us Blues tabs
Stealin' tabs
Pig In A Pen tabs
We Can Run tabs
Broken Arrow tabs
Passenger tabs
Run For The Roses tabs
Eternity tabs
Smokestack Lightning tabs
Slipknot tabs
Sugaree tabs
Shenandoah Lullaby tabs
Cold Rain And Snow tabs
Cassidy tabs
Knockin On Heavens Door tabs
Little Red Rooster tabs


Guitar Tabs









All tabs are property and copyright of their owners. All tabs provided for educational purposes only. Privacy Policy, DMCA