Grateful Dead

Shakedown Street Bass Tabs



More from Grateful Dead

Grateful Dead Tabs
Grateful Dead Chords
Grateful Dead Bass
Grateful Dead Lyrics

grateful dead - shakedown street



tuneing G,D,A,E





intro main verse

|--------------------------------------------------------5--7----------|

|-------------------------------------------------7-10-7------5h7-5h7--|

|-5-------------------5--------------------5--5------------------------|

|----------------------------------------------------------------------|





verse 2 - maybe because its midnight

|------------------------------------------------------------------|

|-------7---------------7--------------7------------------------12-|

|----------------------------------------------7-----55-555-5-5----|

|7---------------7--------------7----------------------------------|





chorus - nothins shakin

|------------------------------------3--5------------|

|------------------------------5-8-5------3h5-3h5----|

|-5---------3-----------3--3-------------------------|

|-----------------5/8--------------------------------|Added by tabs-database.com and our distinguished partners
Get this song at amazon.com      Ebay     Ringtones Ringtones  


Learn to play: Songwriting, Piano, Harmonica, Guitar
More Grateful Dead lyrics available at Muzikum

Related Grateful Dead Tabs

Sing Me Back Home tabs
Mama Tried tabs
Fennerio tabs
Let Me Sing Your Blues Away tabs
Wake Up Little Susie tabs
Festival tabs
You Win Again tabs
Thats All Right Mama tabs
Wheel tabs
Let It Grow tabs
Black Muddy River tabs
Ive Been All Around This World tabs
Rubin And Cherise tabs
Loose Lucy tabs
So Many Roads tabs
Werewolves Of London tabs
Dark Hollow tabs
Russian Lullaby tabs
I Know You Rider tabs
Ill Take A Melody tabs


Guitar Tabs









All tabs are property and copyright of their owners. All tabs provided for educational purposes only. Privacy Policy, DMCA