Grateful Dead

El Paso Tabs



More from Grateful Dead

Grateful Dead Tabs
Grateful Dead Chords
Grateful Dead Bass
Grateful Dead Lyrics

El Paso
Steal Your Face
(Robbins)

 Last Updated 06/03/96

General Rules On Chord Charts

Intro

D                     Em
Out in the West Texas town of El Paso
A7                            D
I fell in love with a Mexican girl.
D                          Em
Nighttime would find me in Rose's Cantina,
A7                                D
Music would play and Felina would whirl.

Blacker then night were the eyes of Felina,
Wicked and evil while casting a spell.
My love was strong for this Mexican maiden,
I was in love, but in vain I could tell.

D7

G                      C           G
One night a wild young cowboy came in,
G           C          D     Dsus4    D
Wild as the West Texas wind...
D
Dashing and daring, a drink he was sharing,
                                    G
With wicked Felina, the girl that I love.
      A
So in anger

I challenged his right for the love of this maiden;
Down went his hand for the gun that he wore.
My challenge was answered, in less than a heartbeat
The handsome young stranger lay dead on the floor.

Just for a moment I stood there in silence,
Shocked by the foul and evil deed I had done.
Many thoughts ran through my mind as I stood there;
I had but one chance and that was to run.

Out through the back door of Rose's I ran,
Out where the horses were tied...
I picked a good one; he looked like he could run,
Up on his back and away I did ride.

Just as fast as

I could from the West Texas town of El Paso,
Out thru the badlands of New Mexico.
Back in El Paso my life would be worthless;
Everything's gone in life nothing is left.
But it's been so long since I've seen the young maiden,
My love is stronger than my fear of death.

I saddled up and away I did go, riding alone in the dark...
Maybe tomorrow a bullet may find me,
Tonight nothing's worse than this pain in my heart.

And as last here

I am on the hill overlooking El Paso,
I can see Rose's Cantina below.
My love is strong and it pushes me onward,
Down off the hill to Felina I go.

Off to my right I see five mounted cowboys,
Off to my left ride a dozen or more.
Shouting and shooting; I can't let them catch me,
I've got to make it to Rose's back door.

Something is dreadfully wrong for I feel
A deep burning pain in my side
It's getting harder to stay in the saddle.
I'm getting weary, unable to ride.

But my love for

Felina is strong and I rise where I've fallen;
Though I am weary, I can't stop to rest.
I see the white puff of smoke from the rifle,
I feel the bullet go deep in my chest.

From out of nowhere, Felina has found me,
Kissing my cheek as she kneels by my side.
Cradled by two loving arms that I'll die for,
One little kiss and Felina goodbye.


--------------------------------------------------------------------------------

Intro
(^) Slide Up  () Slide Down  (h) Hammer On  (p) Pull Off  (b) Bend

RA Tab Support Audio (38K)

MIDI Tab Support Audio (elpaso.mid)

E--------------------2---2---2------2---2---2-------2--2--2-
B--------------------3---3---3------3---3---3-------3--3--3-
G--------------------2---2---2------2---2---2-------2--2--2-
D-----------------0--0---0---0------0---0---0----0--0--0--0-
A--0--0--0--2--4----------------0---------------------------
E-----------------------------------------------------------

E--------------2---2---2------2---2---2-------2--2--2-------
B--------------3---3---3------3---3---3-------3--3--3-------
G--------------2---2---2------2---2---2-------2--2--2-------
D-----------0--0---0---0------0---0---0----0--0--0--0-------
A--0--2--4----------------0---------------------------------
E-----------------------------------------------------------

E--------------2---2---2------2---2---2---------------------
B--------------3---3---3------3---3---3---------------------
G--------------2---2---2------2---2---2---------------------
D-----------0--0---0---0------0---0---0---------------------
A--0--2--4----------------0---------------------------------
E-----------------------------------------------------------
            Out in the    West Texas

E-----0--0--0------0--0--0----------------------------------
B-----0--0--0------0--0--0-------2--2--2-----2--2--2--------
G-----0--0--0------0--0--0-------0--0--0-----0--0--0--------
D-----2--2--2------2--2--2-------2--2--2-----2--2--2--------
A-----2--2--2------2--2--2----0--0--0--0-----0--0--0--------
E--0--0--0--0---0--0--0--0----------------0-----------------
   Town of El   Paso          I fell in   love with a

E--------------------2---2---2------2---2---2-------2--2--2-
B--------------------3---3---3------3---3---3-------3--3--3-
G--------------------2---2---2------2---2---2-------2--2--2-
D-----------------0--0---0---0------0---0---0----0--0--0--0-
A----0---2---4------------------0---------------------------
E-----------------------------------------------------------
     Mex i  can   girl
Get this song at amazon.com      Ebay     Ringtones Ringtones  


Learn to play: Songwriting, Piano, Harmonica, Guitar
Also available at Muzikum: Grateful Dead - El Paso lyrics

Related Grateful Dead Tabs

Good Morning Little Schoolgirl tabs
Easy Wind tabs
Promised Land tabs
Greatest Story Ever Told tabs
Millers Will tabs
Spanish Jam tabs
Cold Rain Snow tabs
Senor tabs
When Push Comes To Shove tabs
Next Time You See Me tabs
Take Me To The River tabs
Little Red Rooster tabs
Easy To Slip tabs
She Belongs To Me tabs
Hot Corn Cold Corn tabs
Intro - Uncle Johns Band tabs
Bye And Bye tabs
Louis Collins tabs
Death Dont Have No Mercy tabs
El Paso tabs


Guitar Tabs









All tabs are property and copyright of their owners. All tabs provided for educational purposes only. Privacy Policy, DMCA