Grateful Dead

Blackbird Tabs



More from Grateful Dead

Grateful Dead Tabs
Grateful Dead Chords
Grateful Dead Bass
Grateful Dead Lyrics

Blackbird
The White Album
(Lennon/McCartney)

 Last Updated 12/01/96

General Rules On Chord Charts

Verse Part
Blackbird singiní in the dead of night
Take these broken wings and learn to fly
All your life
You were only waiting for this moment to arrive
Verse Ending

Blackbird singiní in the dead of night
Take these sunken eyes and learn to see
All your life
You were only waiting for this moment to be free

Bridge
Blackbird fly

Blackbird fly into the light of the dark black night

Blackbird singiní in the dead of night
Take these broken wings and learn to fly
All your life
You were only waiting for this moment to arrive
You were only waiting for this moment to arrive
You were only waiting for this moment to arrive


--------------------------------------------------------------------------------

Verse Part
(^) Slide Up  () Slide Down  (h) Hammer On  (p) Pull Off  (b) Bend



E-----------------------------------------------------------
B----0---------1-------------3^-------12------12---12-----12
G---------0---------0----------------------0-----------0----
D-----------------------------------------------------------
A--------------0-------------2^-------10-----------10-------
E----3------------------------------------------------------
    Blackbird singin' in the dead of night

E---------------3----------------5--------------------------
B----5--------------0---7-------------0---8------8---8-----8
G---------0------------------0----------------0---------0---
D---------------5----------------7--------------------------
A----3------------------5-----------------7----------6------
E-----------------------------------------------------------
    Take these broken wings and learn to fly, ummm
    Take these sunken eyes  and learn to see, ummm

E----------3------------------------------------------------
B-----7---------5--------5----4--------4--------------------
G--------------------0-------------0------------------------
D----------5------------------------------------------------
A-----5---------3-------------3-----------------------------
E-----------------------------------------------------------
     All your life

E-----------------------------------------------------------
B-----3-------3-----2-----------2----1--------1---0---------
G---------0----------------0--------------0-----------------
D-----------------------------------------------------------
A-----2-------------0----------------0----------------------
E-------------------------------------------------3---------
     You were only waiting for this moment to arrive
     You were only waiting for this moment to be free

Return To Base


--------------------------------------------------------------------------------

Verse Ending
(^) Slide Up  () Slide Down  (h) Hammer On  (p) Pull Off  (b) Bend


After the first verse, do this staff (skip it after the 2nd)

E----------------------------------------------3------------
B-----5---3---2------2---1------1----0------0---------------
G-----------------0----------0-----------0------------------
D-----------------------------------------------------------
A-----3---2---0----------0----------------------------------
E------------------------------------3----------------------

Return To Base


--------------------------------------------------------------------------------

Bridge
(^) Slide Up  () Slide Down  (h) Hammer On  (p) Pull Off  (b) Bend



E-----------------------------------------------------------
B---10---8---7---5---3-------3-------5------5---------------
G------------------------0---------------0------------------
D-----------------------------------------------------------
A---9----6---5---3---1-----------1---3----------------------
E-----------------------------------------------------------
   Bla -ack bi- rd  fly

E-----------------------------------------------------------
B---10---8---7---5---3-------3-------2------2---------------
G------------------------0--------------0-------------------
D-----------------------------------------------------------
A---9----6---5---3---1-----------1---0----------------------
E-----------------------------------------------------------
   Bla -ack bi- rd  fly                 into the

E----------------------------------------3------------------
B-----1-----------1----0------------0-----------------------
G------------0----------------0-----------------------------
D-----------------------------------------------------------
A-----0-----------------------------------------------------
E----------------------3------------------------------------
    light of the dark brown night
Get this song at amazon.com      Ebay     Ringtones Ringtones  


Learn to play: Songwriting, Piano, Harmonica, Guitar
More Grateful Dead lyrics available at Muzikum

Related Grateful Dead Tabs

The Eleven tabs
Shining Star tabs
Eleven tabs
Tons Of Steel tabs
Wharf Rat tabs
Love Please Come Home tabs
Loose Lucy tabs
Take Me To The River tabs
Hot Corn Cold Corn tabs
Promised Land tabs
Loser tabs
Dark Star tabs
That Lucky Old Sun tabs
Two Souls In Communion tabs
Broken Arrow tabs
Scarlet Begoinas tabs
Sing Me Back Home tabs
Spoonful tabs
Catfish John tabs
Let It Rock tabs


Guitar Tabs









All tabs are property and copyright of their owners. All tabs provided for educational purposes only. Privacy Policy, DMCA