Grade

Grade - 8 - Brick by Brick guitar tab

Artist: Grade 8

Song: Brick by brick

Tabber: c0z420

Tuning C G C F A D

Intro/Pre-Chorus: W/wah and distortion

Bb|-------------------------------------------------------------------|

Gb|-------------------------------------------------------------------|

Db|-------------------------------------------------------------------|

Ab|-------------------------------------------------------------------|

Eb|-------------------------------------------------------------------|

Bb|-0-0-0-0-3-3-3-3/5-5-5-5/6-6-6-6--0-0-0-0-3-3-3-3/5-5-5-5/6-6-6-6--|

Heavy Intro/Chorus:

Bb|-------------------------------------------------------------------|

Gb|-------------------------------------------------------------------|

Db|-------------------------------------------------------------------|

Ab|-2-2-2-2/5-5-5-5/7-7-7-7/8-8-8-8--2-2-2-2/5-5-5-5/7-7-7-7/8-8-8-8--|

Eb|-2-2-2-2/5-5-5-5/7-7-7-7/8-8-8-8--2-2-2-2/5-5-5-5/7-7-7-7/8-8-8-8--|

Bb|-0-0-0-0/3-3-3-3/5-5-5-5/6-6-6-6--0-0-0-0/3-3-3-3/5-5-5-5/6-6-6-6--|

Verse:

Bb|-----------------------------------------------|

Gb|-----------------------------------------------|

Db|-----------------------------------------------|

Ab|-2--x---2--2--2--x---2--2--2--x---2--2--2--5---|

Eb|-2--x---2--2--2--x---2--2--2--x---2--2--2--5---|

Bb|-0--x---0--0--0--x---0--0--0--x---0--0--0--3---|

Chorus:

Bb|-------------------------------------------------------------------|

Gb|-------------------------------------------------------------------|

Db|-------------------------------------------------------------------|

Ab|-2-2-2-2/5-5-5-5/7-7-7-7/8-8-8-8--2-2-2-2/5-5-5-5/7-7-7-7/8-8-8-8--|

Eb|-2-2-2-2/5-5-5-5/7-7-7-7/8-8-8-8--2-2-2-2/5-5-5-5/7-7-7-7/8-8-8-8--|

Bb|-0-0-0-0/3-3-3-3/5-5-5-5/6-6-6-6--0-0-0-0/3-3-3-3/5-5-5-5/6-6-6-6--|

Interlude:

Bb|---------------------------------------------------------------------|

Gb|---------------------------------------------------------------------|

Db|---------------------------------------------------------------------|

Ab|-2--2--5---5-6-7--2--2--5---5-6-7--2--0--5---5-6-7--2--2--5---5-6-7--|

Eb|-2--2--5---5-6-7--2--2--5---5-6-7--2--0--5---5-6-7--2--2--5---5-6-7--|

Bb|-0--0--3---3-4-5--0--0--3---3-4-5--0--0--3---3-4-5--0--0--3---3-4-5--|

pm ... ...... ... ..... ... ..... ... .....

Get this song at:  amazon.com sheetmusicplus.com

Share your thoughts

0 Comments found