Gluecifer

Gluecifer - I Got A War guitar tab

gluecifer - i gotta war

verse

e|---------------------------------

b|---------------------------------

g|--55-------5------88-------3-----

d|--5555-55555-5-55-8888-3-333-3-33

a|--3355-55553-5-55-6688-3-331-3-33

e|----33-3333--3-33---66-1-11--1-11

over and over a bunch of times until

chorus

e|--------------------------------------

b|--------------------------------------

g|--8-88-888----------------------------

d|--8-88-8888-88-3-33/555-55-5-5-55-555-

a|--6-66-6668-88-3-33/555-55-5-5-55-555-

e|----------6-66-1-11/333-33-3-3-33-333-

e|--------------------------------------

b|--------------------------------------

g|--8-88-888-------------8--------------

d|--8-88-8888-88-3-33/55-8-88-3-33-333--

a|--6-66-6668-88-3-33/55-6-88-3-33-333--

e|----------6-66-1-11/33---66-1-11-111--

and just listen and figure out how this fits in its not really hard,

theres a part that's like this somewhere in one of the verses

e|--------------------------

b|--------------------------

g|--55---5(7)5(7)5(7)--3----

d|--55-5-------------5---5--

a|--33-5--------------------

e|-----3--------------------

after not being able to find the lyrics anywhere,

here's what i could make of them.

i figure its pretty accurate for anything else out there

got a war baby

got a want you

got a war baby

so whatcha gonna do

im gettin sick baby

im gettin from you

i wanna kid baby

im guessin we are true

whatcha gonna do

tell me

whatcha gonna do

cmon tell me

whatcha gonna do

i got a war with you i got a war with you

line it up on the battlefield cuz i can battle all night long

im tellin ya baby, i gotta war

grab a chair your gonna need a seat cuz i got so much in store

an im tellin ya baby, i gotta war

cant help me baby, were replacin you

go on an tell me, nothin you can do

cuz im screamin

you can keep on dreamin

an nothin more to say

an nothin more to do

line it up on the battlefield cuz i can battle all night long

im tellin ya baby, i gotta war

grab a chair your gonna need a seat cuz i got so much in store

an im tellin ya baby, i gotta war

thats right baby, i gotta war, and i got it with you, so, hear me now, cmon,

yea i been takin my chance

to git me outta this stench

cant help me baby, were replacin you

go on an tell me, nothin you can do

cuz im screamin

you can keep on dreamin

an nothin more to say

an nothin more to do

line it up on the battlefield cuz i can battle all night long

im tellin ya baby, i gotta war

grab a chair your gonna need a seat cuz i got so much in store

an im tellin ya baby, i gotta war

---------------------------

---------------------------

posted by : dean morris

mean_dorris@hotmail.com

Get this song at:  amazon.com sheetmusicplus.com

Share your thoughts

0 Comments found