Gert Vlok Nel

Gert Vlok Nel - Waarom Ek Roep Na Jou Vanaand guitar tab

tabs-database.com[http://www.tabs-database.com.com/]

He's famous in Holland & South Africa

Gert Vlok Nel - Waarom Ek Roep Na Jou Vanaand

South African

Hello,

The timing of this tab isn't correct and it's my first real tab, before I only tabbed

chords this times all notes,

this is the way that I play this tab, you'll have to listen to the song to get the

for it. It's pretty much

all the same. This song is not too hard, try it!

Intro:

|-----2---2-3-2-0----------0----------0-----------------------2-------|

|-----------------3---3-s2---3---3-s2---3-------2-----------3---3-----|

|-2s4---------------------------------------------2---------------2---|

|-0-------4-------0----------0----------0-----2-----2-----0-----------|

|-----------------------0----------0--------0-------------------------|

|---------------------------------------------------------------------|

In the rest of the song, this part is repeated all the time:

D A

|-----2---------0----------------------------------------------|

|---3---3-----2---2--------------------------------------------|

|-2---------2--------------------------------------------------|

|--------------------------------------------------------------|

|--------------------------------------------------------------|

|--------------------------------------------------------------|

These are all fills that are entered in parts where there's no singing.

Be creative, there are other ways, this is just my way.

Solo 1: 3:08

|-0-2---3-2-0-----0--------------------------------------------|

|-------------3-2---3------------------------------------------|

|--------------------------------------------------------------|

|--------------------------------------------------------------|

|--------------------------------------------------------------|

|--------------------------------------------------------------|

Solo 2: 4:34

|-0-2s5s2---------------------0--------------------------------|

|-----------8-7-5-3---5-3---2---2-3----------------------------|

|-----------7-6-4-2---4-2--------------------------------------|

|--------------------------------------------------------------|

|--------------------------------------------------------------|

|--------------------------------------------------------------|

Fill 1: 4:56

|-0s2-3-2------------------------------------------------------|

|--------------------------------------------------------------|

|--------------------------------------------------------------|

|--------------------------------------------------------------|

|--------------------------------------------------------------|

|--------------------------------------------------------------|

Fill 2: 7:09

|-0s2-5-2--3-2-0-----------------------------------------------|

|----------------3---------------------------------------------|

|--------------------------------------------------------------|

|--------------------------------------------------------------|

|--------------------------------------------------------------|

|--------------------------------------------------------------|

Fill 3: 9:47

|-----2---2-3-2-0----------0-----|

|-----------------3---3-s2---3---|

|-2s4----------------------------|

|-0-------4-------0----------0---|

|-----------------------0--------|

|--------------------------------|

Fill 4: 10:00

|-0-2s5s2---------------------0---------------------------------|

|-----------8-7-5-3---5-3---2---2-3-----------------------------|

|-----------7-6-4-2---4-2---------------------------------------|

|---------------------------------------------------------------|

|---------------------------------------------------------------|

|---------------------------------------------------------------|

Tabbed by SjoukeB

Hope this is useful!

For questions mail me at webmaster at tabs-database.com.comAdded by tabs-database.com and our distinguished partners

Get this song at:  amazon.com sheetmusicplus.com

Share your thoughts

0 Comments found