George Strait

George Strait - Easy Come Easy Go lead guitar tab

Easy Come, Easy Go

George Strait

Intro:

e-10/12\10--------------------------

b-10/12\10---7h8/10---10\8----7-----

g------------7h9/11---11\9----7-----

d-----------------------------------

a-----------------------------------

E-----------------------------------

Solo:

e-10--10---10------10-----10-----10---------------------------------

b-10--10---10------10--10h12--10h12-----10--10--10------------------

g--------------12---------------------9h11--11--11---9brp7--7~~~~~--

d-------------------------------------------------------------------

a-------------------------------------------------------------------

E-------------------------------------------------------------------

e----------------------------------------15-17----------------------

b---------------------10~~~------15-17b--------17b--15------15~~~---

g-7--9b--7~~~~---9/11--------/16------------------------16----------

d-------------------------------------------------------------------

a-------------------------------------------------------------------

E-------------------------------------------------------------------

e------17--17\15---15---15----10-----10-----------------------------

b-/19------19\17---17---17----10h12--10---10-----10--8/10--8p7------

g------------------------------------------9h11--11--9/11--9p7------

d---------------------------------------------------------------9---

a-------------------------------------------------------------------

E-------------------------------------------------------------------

Get this song at:  amazon.com sheetmusicplus.com

Share your thoughts

0 Comments found