George Jones

George Jones - The Race Is On solo guitar tab

THE RACE IS ON

George Jones

Solo

E----------------------------2-3--3h5-5--5-5----7-7-7-7--5------

B----------------------2-3-4-------------------------------7----

G--------------1--2-4-------------------------------------------

D----------2-4--------------------------------------------------

A--0-0-0-4------------------------------------------------------

E---------------------------------------------------------------

E--5---5--5--5--5-------5---5--5/6--7---7--7--5-----------------

B------------------7-----------------------------9/8/7--5-5-----

G---------------------------------------------------------------

D---------------------------------------------------------------

A-------------------------------------------------------------0-

E---------------------------------------------------------------

then, it breaks into a piano solo

Get this song at:  amazon.com sheetmusicplus.com

Share your thoughts

0 Comments found