Games

Games - R Type - Boss Theme guitar tab

Date: Wed, 07 Mar 2001 11:13AM MST

From: pakoman@mixmail.com

To: vgjam@usa.net

Video Game Jam - Guitar and Bass Tablature for Video Game Music

http://www.kontek.net/vgjam/

------------------------------------------------------------------------------

R-Type Boss Theme

TablEdited by PAKOMAN

Tuning : E A D G B E Time Signature: 4/4

| | | | | | | | | | | | | | | |

|--------------------------------|--------------------------------|----------------------1012101215|171517--17----------------------|

|--------------------------------|--------------------------1---1-|----------10--10131013----------|------13--131517----------------|

|--------------------------------|------------------0-2-0-2---2---|--9---9-12--12------------------|--------------------------------|

|--------------------------------|----------0-2-0-2---------------|12--12--------------------------|--------------------------------|

|--------------------------------|--0-3-0-3-----------------------|--------------------------------|--------------------------------|

|--------------------------------|3-------------------------------|--------------------------------|--------------------------------|

| | | | | | | | | | | | | | | |

|--------------------------------|--------------------------------|--------------------------------|--------------------------------|

|--------------------------------|--------------------------------|--------------------------------|--------------------------------|

|--------------------------------|--------------------------------|--------------------------------|--------------------------------|

|------------------------16----15|--------------------------------|------------------------16----15|--------------------------------|

|--------18----16----18----------|----16--18----16----18----------|--------18----16----18----------|----16--18----16----18----------|

|--------------------------------|------------------------15----16|----18--------------------------|------------------------15----16|

| | | | | | | | | | | | | | | |

|17------------------------------|--------------------------------|--------------------------------|--------------------0---1-----2-|

|--------------------------------|--------2-----1-----0-----------|------------------------0-----1-|----2---3-----4-----------------|

|--------------------------------|------------------------3-------|--------1-----2-----3-----------|--------------------------------|

|--------------------------------|--------------------------------|--------------------------------|--------------------------------|

|--------18----17----16--15------|--------------------------------|--------------------------------|--------------------------------|

|----18--------------------------|--------------------------------|--------------------------------|--------------------------------|

| | | | | | | | | | | | | | | |

|--------------------------------|--------------------------------|--------------------------------|--------------------------------|

|--------------------------------|--------------------------------|--------------------------------|--------------------------------|

|--------------------------------|--------------------------------|--------------------------------|--------------------------------|

|----17------------------16----15|--------------------------------|------------------------16----15|--------------------------------|

|--------18----16----18----------|----16--18----16----18----------|--------18----16----18----------|----16--18----16----18----------|

|--------------------------------|------------------------15----16|----18--------------------------|------------------------15----16|

| | | | | | | | | | | | | | | |

|--------------------------------|--------------------------------|--------------------------------|--------------------0---1-----2-|

|--------------------------------|--------2-----1-----0-----------|------------------------0-----1-|----2---3-----4-----------------|

|--------------------------------|------------------------3-------|--------1-----2-----3-----------|--------------------------------|

|--------------------------------|--------------------------------|--------------------------------|--------------------------------|

|--------18----17----16--15------|--------------------------------|--------------------------------|--------------------------------|

|----18--------------------------|--------------------------------|--------------------------------|--------------------------------|

| | | | | | | | | | | | | | | |

|--------------------------------|--------------------------------|--------------------------------|--------------------------------|

|--------------------------------|--------------------------------|--------------------------------|--------------------------------|

|--------------------------------|--------------------------------|--------------------------------|--------------------------------|

|----17------------------16----15|--------------------------------|------------------------16----15|--------------------------------|

|--------18----16----18----------|----16--18----16----18----------|--------18----16----18----------|----16--18----16----18----------|

|--------------------------------|------------------------15----16|----18--------------------------|------------------------15----16|

| | | | | | | | | | | | | | | |

|17------------------------------|--------------------------------|--------------------------------|--------------------0---1-----2-|3

|--------------------------------|--------2-----1-----0-----------|------------------------0-----1-|----2---3-----4-----------------|

|--------------------------------|------------------------3-------|--------1-----2-----3-----------|--------------------------------|

|--------------------------------|--------------------------------|--------------------------------|--------------------------------|

|--------18----17----16--15------|--------------------------------|--------------------------------|--------------------------------|

|----18--------------------------|--------------------------------|--------------------------------|--------------------------------|

Get this song at:  amazon.com sheetmusicplus.com

Share your thoughts

0 Comments found