Games

Games - Metal Gear Solid - The Best Is Yet To Come guitar tab

The Best is Yet to Come

Metal Gear Solid (PSX)

Rika Muranaka

Tactical Espionage Banjo Action. From what's audible on the track,

The verse and chorus is the same but there's another banjo/whatever

It is playing over the top later on which is also very hard to hear

So I've only tabbed the couple of bits I can pick up.

After the first verse play everything a bit stronger and faster.

Verse/ Chorus

Am G

E------------0----------------0-----------------------------

B--------1-----1-----------1------------0--3--0-------0-----

G---------------2---------------------0------------0--------

D-----2-----------------2-----------------------------------

A--0-----------------0--------------------------------------

E-----------------------------------3-------------3---------

Am G

E-----------0------------------0----------------------------

B--------1------1-----------1-------------0---3-1-0-1-3-----

G----------------2----------------------0-------------------

D-----2-----------------2-----------------------------------

A--0-----------------0--------------------------------------

E------------------------------------3-------3--------------

Am G

E-----------0---------------0-------------------------------

B--------1-----1---------1--------------0---3-1-0-1-3-------

G---------------2--------------------0----------------------

D-----2---------------2-------------------------------------

A--0----------------0---------------------------------------

E---------------------------------3-------3-----------------

G Am

E--------------------------------------0--------------------

B-------0--3--0--------0------------1-----1-----------------

G----0--------------0-----------------------2-------2-------

D--------------------------------2----------------2---------

A------------------------------0----------------0-----------

E--3-------------3------------------------------------------

Solo

(This part is very flowing & slurred so the tab here

is just a rough guide.)

E------------------5-7-8---85---7---5p3--

B-5-8bu(10)-10--8-------------------------

G-----------------------------------------

D-----------------------------------------

A-----------------------------------------

E-----------------------------------------

E---------------------10/12-10-------

B-5/10-10p8-10-12h13-----------------

G------------------------------------

D------------------------------------

A------------------------------------

E------------------------------------

E------------------5-7-8---85---7---5p3--

B-5-8bu(10)-10--8-------------------------

G-----------------------------------------

D-----------------------------------------

A-----------------------------------------

E-----------------------------------------

E--7-7h8--7---53--5-----------------

B------------------------------------

G------------------------------------

D------------------------------------

A------------------------------------

E------------------------------------

Second Guitar (comes in about 3:06)

E--7-8-5-7-3-5-0-5-0-7-0-8----------

B-----------------------------------

G-----------------------------------

D-----------------------------------

A-----------------------------------

E-----------------------------------

E--8---8---7-5--8---8---------------

B--10--10-------10--10--------------

G-----------------------------------

D-----------------------------------

A-----------------------------------

E-----------------------------------

Tab by: vganimegt@yahoo.co.uk

http://www.geocities.com/vganimegt

Get this song at:  amazon.com sheetmusicplus.com

Share your thoughts

0 Comments found