Fu Manchu

Fu Manchu - Wiz Kid guitar tab

wiz kid

by Fu Manchu

from the new album 'california crossing'

transcribed by Christian Reindel (creindel@gmx.de)

any questions or corrections - e-mail me

TUNE DOWN ONE WHOLE STEP

X - p.m.-note

5~~ - bend the note

Intro

D:|-------------------------------------------------------------|

A:|-------------------------------------------------------------|

F:|-------------------------------------------------------------|

C:|--------5-(5)---------5-(5)-5-5-5-5-5-5-5-5-5-5-5-5-5-5-5-5--|

G:|-7-(7)--3-(3)--7-(7)--3-(3)-3-3-3-3-3-3-3-3-3-3-3-3-3-3-3-3--|

D:|-5-(5)---------5-(5)-----------------------------------------|

verseriff

D:|---------------------------------------------------|

A:|---------------------------------------------------|

F:|----------------------------------------------5~~~-|

C:|------5-X-X--------------------7-X-X----5-7-7------|

G:|-7-7--3-X-X--------3------7-7--5-X-X---------------|

D:|-5-5---------3-5-5---5----5-5----------------------|

chorus - the wiz kid says...

D:|-----------------------------------------|

A:|-----------------------------------------|

F:|-----------------------------------------|

C:|-------------------------------------5---|

G:|-7-7-7-7-7-7-7-7-7-7-7-7-7-7-7-5/7\5-3-7-|

D:|-5-5-5-5-5-5-5-5-5-5-5-5-5-5-5-3/5\3---5-|

Interlude - 2 times

D:|-------------------------------------------------------------|

A:|-------------------------------------------------------------|

F:|-------------------------------------------------------------|

C:|---------------5-5--5-5-(5)---7-7--7-7-(7)-------------------|

G:|-7-7--7-7-(7)--3-3--3-3-(3)---5-5--5-5-(5)---7-7--7-7-(7)----|

D:|-5-5--5-5-(5)--------------------------------5-5--5-5-(5)----|

after interlude

Riff 1 - 4 times

D:|----------------------------------------|

A:|----------------------------------------|

F:|----------------------------------------|

C:|----------------------------------------|

G:|-7-7------7-7-------------3-------------|

D:|-5-5------5-5---------3-5---------------|

Riff 2 - 4 times than this

D:|-------------------------------|-------------------------------|

A:|-------------------------------|-------------------------------|

F:|-------------------------------|-------------------------------|

C:|-------------------------------|-5-5-5-5-5-5-5-5-5-5-5-5-5-5-5-|

G:|-7-7-7-7--7-7-7--7-7------3----|-3-3-3-3-3-3-3-3-3-3-3-3-3-3-3-|

D:|-5-5-5-5--5-5-5--5-5--3-5------|-------------------------------|

Riff 3 - 2 times

D:|----------------------------------------|

A:|----------------------------------------|

F:|-9-9-9-9-(9)-------9-9-9-9-(9)----------|

C:|-7-7-7-7-(7)-------7-7-7-7-(7)----------|

G:|----------------------------------------|

D:|----------------------------------------|

back to chorusriff - 8 times

finish with that part

D:|------------------------------------|

A:|------------------------------------|

F:|--------------------------9-9-9-9---|

C:|------5-X-X-----------7---7-7-7-7---|

G:|-7-7--3-X-X--------3----------------|

D:|-5-5---------3-5-5------------------|

end.

Get this song at:  amazon.com sheetmusicplus.com

Share your thoughts

0 Comments found