Fu Manchu

Fu Manchu - Urethane guitar tab

"Urethane" by Fu Manchu.

From the Album "The Action is go".

Tabbed by SETCH. Brought to you by stickyhomer.

Tuning:-all strings down a full step.

eg(DGCFAD)

Nice easy one with just two Riffs.....

Riff 1.

d|-----------------------------------------------------------------|

A|-----------------------------------------------------------------|

F|-----------------------------------------------------------------|

C|---------------55-----55-----------------------55-----55---------|

G|-7--77--5--77--33-55--33-55------7--77--5--77--33-55--33-55------|

D|-5--55--3--55-----33-----33------5--55--3--55-----33-----33------|

Riff 2.

d|-----------------------------------------------|

A|-----------------------------------------------|

F|-----------------------------------------------|

C|----------------------------5--------5-77------|

G|-777777777777777---5-77--7--3-55--5--3-55------|

D|-555555555555555---3-55--5----33--3------------|

Get this song at:  amazon.com sheetmusicplus.com

Share your thoughts

0 Comments found