Fu Manchu

Fu Manchu - Unknown World guitar tab

"Unknown World" by Fu Manchu.

From the Album "The Action is go".

Tabbed by SETCH. Brought to you by stickyhomer.

Tuning:-all strings down a full step.

eg(DGCFAD)

Riff 1. (intro and chorus)

d|--------------------------------------------------------|

A|--------------------------------------------------------|

F|--------------------------------------------------------|

C|--7--5--7--------------------7--5--7--------------------|

G|-----------5sl7-------2---------------5sl7-------2------|

D|----------------------0--------------------------0------|

Riff 2. (verse)

d|--------------------------------------------------------|

A|--------------------------------------------------------|

F|--------------------------------------------------------|

C|--------------------------------------------------------|

G|--8--5---------5--8------------8--5---------5--8--------|

D|--6sl3---------3sl6------------6sl3---------3sl6--------|

Riff 3. (solo rhythm)

d|--------------------------------------------------------|

A|--------------------------------------------------------|

F|--------------------------------------------------------|

C|-7-5-7-5--------------------7-5-7-5---------------------|

G|---------7-5-7-0-3-5-0-5-7----------7-5-7-5-0-3-5-0-5-7-|

D|-----------------------3-5--------------------------3-5-|

Riff 4. (interlude)

d|--------------------------------------------------------|

A|--------------------------------------------------------|

F|--------------------------------------------------------|

C|-----------------------------------play-again-'n'-again-|

G|-----------------------------------rising-to-the-12th---|

D|-0-0-0-0-0-0-0-0-0-0-0-0-0-0-0-0---fret-near-the-end----|

Get this song at:  amazon.com sheetmusicplus.com

Share your thoughts

0 Comments found